Cifra Club

Aprenda

La Leyenda Del Hada Y El Mago

Rata Blanca

Cifra: Principal (violão e guitarra)
tom: Em
[Intro] Em  C/E  Em  C/E

E|----------------------------------------------------------------|
B|----------------------------------------------------------------|
G|----------------------------------------------------------------|
D|----------------------------------------------------------------|
A|----------------------------------------0-----------------------|
E|3-0-0---0-------3-0-0---0-------3-2-0-----3-2---3-0-0---0-------|

E|----------------------------------------------------------------|
B|----------------------------------------------------------------|
G|----------------------------------------------------------------|
D|----------------------------------------------------------------|
A|----------------------------------------0-----------------------|
E|3-0-0---0-------3-0-0---0-------3-2-0-----3-2---3-0-0---0-------|

E|----------------------------------------------------------------|
B|----------------------------------------------------------------|
G|----------------------------------------------------------------|
D|----------------------------------------------------------------|
A|----------------------------------------0-----------------------|
E|3-0-0---0-------3-0-0---0-------3-2-0-----3-2---3-0-0---0-------|

E|----------------------------------------------------------------|
B|----------------------------------------------------------------|
G|----------------------------------------------------------------|
D|------------------------------------------------0---------------|
A|----------------------------------------0---------3-2---0-------|
E|3-0-0---0-------3-0-0---0-------3-2-0-----3-2-------------3-2---|

Em                          D                     Em                  B   A5
 Cuenta la historia que un mago que un día en su bosque encantado lloró
G                      D                C          B       Em   C  B
 Porque a pesar de su magia no había podido encontrar el amor

Em                  D            Em                B     A5
 La luna su única amiga le daba fuerzas para soportar,
G                      D               C       B         Em
 Todo el dolor que sentía por culpa de su tan larga soledad

[Refrão]

C            Em          D   D/F#        G    G#dim
 Y es que sabía muy bien,    que es existir
Am              A#dim        Bsus4   B
 nunca debía salir de su desti...   no
E    E/G#       Am              D   D/F#     G
 Si alguien te tiene que hablar... ya lo sabrás
C                   F#         Bsus4   B
 Solo tendrás que saber reconocer...  lo

E|----------------------------------------------------------------|
B|----------------------------------------------------------------|
G|----------------------------------------------------------------|
D|----------------------------------------------------------------|
A|----------------------------------------0-----------------------|
E|3-0-0---0-------3-0-0---0-------3-2-0-----3-2---3-0-0---0-------|

E|----------------------------------------------------------------|
B|----------------------------------------------------------------|
G|----------------------------------------------------------------|
D|----------------------------------------------------------------|
A|----------------------------------------0-----------------------|
E|3-0-0---0-------3-0-0---0-------3-2-0-----3-2---3-0-0---0-------|

E|----------------------------------------------------------------|
B|----------------------------------------------------------------|
G|----------------------------------------------------------------|
D|----------------------------------------------------------------|
A|----------------------------------------0-----------------------|
E|3-0-0---0-------3-0-0---0-------3-2-0-----3-2---3-0-0---0-------|

E|----------------------------------------------------------------|
B|----------------------------------------------------------------|
G|----------------------------------------------------------------|
D|------------------------------------------------0---------------|
A|----------------------------------------0---------3-2---0-------|
E|3-0-0---0-------3-0-0---0-------3-2-0-----3-2-------------3-2---|

Em                       D
Fue en una tarde que el mago
                Em                 B  A
Paseando en el bosque la vista cruzó
G                   D
Con la más dulce mirada
               C       B        Em      C  B
Que en toda su vida jamás conoció
Em                    D
Desde ese mismo momento
              Em               B  A
El hada y el mago quisieron estar
G                    D
Sólo los dos en el bosque
          C            B      Em
Amándose siempre y en todo lugar

[Refrão]

C               Em           D   D/F#    G   G#dim
Y el mal que siempre existió,   no soportó

Am               A#dim         Bsus4    B
Ver tanta felicidad entre dos se...   res

E    E/G#  Am         D   D/F#         G
  Y con su odio atacó,   hasta que el hada cayó

C              F#          Bsus4   B
en ese sueño fatal de no senti...  ir

[Solo] Em  Em  B  Em
       Em  Em  B  C

       B  Em  D  G
       Am  D  G  C  C  B  Em
       B  Em  D  G
       Am  D  G  C  C  B

       Am  B  Em  D  G
       C  F#  Bsus4  C#

       F#m  C#  F#m  C#
       F#  F#/A#  Bm  B/D
       E  E/G#  A  A/C#
       Bm  A  G#  C#

       C#  C#  C#  C#

       F#m  C#  C#/E  F#m
       A  E  E/G#  A
       A  D  D#dim  E  Fdim
       F#  D  Bm  D7

       C#  C#

       D  D#  Em  B
       Em  C/E  Em  C/E

E|----7---3---0-----------------0---0-2-3-2---0-|
B|17------------0----------0--4---4---------4---|
G|----------------0------0----------------------|
D|------------------2--4------------------------|
A|----------------------------------------------|
E|----------------------------------------------|

E|12--7--3--0-----------------0----0--2--3--2-----0-|
B|------------0----------0--4---4--------------4----|
G|--------------0------0----------------------------|
D|----------------2--4------------------------------|
A|--------------------------------------------------|
E|--------------------------------------------------|

E|14-12-11-12-11-12-----14-12-11-12-11-12----15-14-12-14-12-14----15-14-12-14-12-14-|
B|----------------------------------------------------------------------------------|
G|----------------------------------------------------------------------------------|
D|----------------------------------------------------------------------------------|
A|----------------------------------------------------------------------------------|
E|----------------------------------------------------------------------------------|

E|-17-15-14-15-14-15-----17-15-14-15-14-15----20-17-15-17-15-17--19|
B|-----------------------------------------------------------------|
G|-----------------------------------------------------------------|
D|-----------------------------------------------------------------|
A|-----------------------------------------------------------------|
E|-----------------------------------------------------------------|

E|20-17-15-17-15-17-----17-15-14-15-14-15----19-17-15-17-15-17-----15-14-12-14-12-14-|
B|-----------------------------------------------------------------------------------|
G|-----------------------------------------------------------------------------------|
D|-----------------------------------------------------------------------------------|
A|-----------------------------------------------------------------------------------|
E|-----------------------------------------------------------------------------------|

E|-15-14-12-14-12-14-----14-12-11-12-11-12-12|
B|-------------------------------------------|
G|-------------------------------------------|
D|-------------------------------------------|
A|-------------------------------------------|
E|-------------------------------------------|

E|14-12-11-12-11-12----14-12-11-12-11-12-----15-14-12-14-12-14----15-14-12-14-12-14-|
B|----------------------------------------------------------------------------------|
G|----------------------------------------------------------------------------------|
D|----------------------------------------------------------------------------------|
A|----------------------------------------------------------------------------------|
E|----------------------------------------------------------------------------------|

E|-17-15-14-15-14-15-----17-15-14-15-14-15----20-17-15-17-15-17--19|
B|-----------------------------------------------------------------|
G|-----------------------------------------------------------------|
D|-----------------------------------------------------------------|
A|-----------------------------------------------------------------|
E|-----------------------------------------------------------------|

E|20-17-15-17-15-17----17-15-14-15-14-15----19-17-15-17-15-17-----15-14-12-14-12-14-|
B|----------------------------------------------------------------------------------|
G|----------------------------------------------------------------------------------|
D|----------------------------------------------------------------------------------|
A|----------------------------------------------------------------------------------|
E|----------------------------------------------------------------------------------|

E|-15-14-12-14-12-14-----14-12-11-12-11-12---12|
B|-------------------------------------------17|
G|---------------------------------------------|
D|---------------------------------------------|
A|---------------------------------------------|
E|---------------------------------------------|

E|12----14----15----15----14-12-14------12-14-15-----14-15-17-|
B|------------------------------------------------------------|
G|------------------------------------------------------------|
D|------------------------------------------------------------|
A|------------------------------------------------------------|
E|------------------------------------------------------------|

E|-14-15-17-----14-15-17-----20-----19-17-19-----20----19----17|
B|-------------------------------------------------------------|
G|-------------------------------------------------------------|
D|-------------------------------------------------------------|
A|-------------------------------------------------------------|
E|-------------------------------------------------------------|

E|12----14------15------15------14-12-14-------12-14-15------14-15-17|
B|-------------------------------------------------------------------|
G|-------------------------------------------------------------------|
D|-------------------------------------------------------------------|
A|-------------------------------------------------------------------|
E|-------------------------------------------------------------------|

E|14-15-17------14-15-17----20-----19-17-19------20----19----17|
B|-------------------------------------------------------------|
G|-------------------------------------------------------------|
D|-------------------------------------------------------------|
A|-------------------------------------------------------------|
E|-------------------------------------------------------------|

E|15----14----12----14-----12-18-15-12----14-15-14----12|14----11|
B|----------------------------------------------------------------|
G|----------------------------------------------------------------|
D|----------------------------------------------------------------|
A|----------------------------------------------------------------|
E|----------------------------------------------------------------|

E|21----14|14----9--14-17-21-17-21-17-----9-14-17-14-17-14|
B|--------------------------------------------------------|
G|--------------------------------------------------------|
D|--------------------------------------------------------|
A|--------------------------------------------------------|
E|--------------------------------------------------------|

E|5-9-14-9-14-9----2-5-9-5-9-5--2------2|
B|--------------------------------------|
G|--------------------------------------|
D|--------------------------------------|
A|--------------------------------------|
E|--------------------------------------|

E|5-9-14-9-5-2----2-5-9-14-5-9----14-17-9-14-5-9--14-9-14-17-19-17--14----21-17-14----9-5-9-|
B|-------------------------------------------------------------------------------------------|
G|-------------------------------------------------------------------------------------------|
D|-------------------------------------------------------------------------------------------|
A|-------------------------------------------------------------------------------------------|
E|-------------------------------------------------------------------------------------------|

E|14-----12----10-9-|10-----19-16-12-----7-4-7-10-----10-----9-7-|9------14--16--17|
B|---------------------------------------------------------------------------------|
G|---------------------------------------------------------------------------------|
D|---------------------------------------------------------------------------------|
A|---------------------------------------------------------------------------------|
E|---------------------------------------------------------------------------------|

E|21-----21-17-14-17-14-9----14-17-14-9-5-9--5-2-5-9-5-2----5-9-2---23----21----24|
B|--------------------------------------------------------------------------------|
G|--------------------------------------------------------------------------------|
D|--------------------------------------------------------------------------------|
A|--------------------------------------------------------------------------------|
E|--------------------------------------------------------------------------------|

E|21-----17-14-17-21-17-16----14-17-21-17-14-12|
B|---------------------------------------------|
G|---------------------------------------------|
D|---------------------------------------------|
A|---------------------------------------------|
E|---------------------------------------------|

E|14-17-21-17-14-17----14-21-17-16-14-12---14-17-21-17-16-14----12-9-5-9-14-12|
B|----------------------------------------------------------------------------|
G|----------------------------------------------------------------------------|
D|----------------------------------------------------------------------------|
A|----------------------------------------------------------------------------|
E|----------------------------------------------------------------------------|

E|9-5-9-14-12-9----5-4-9-5-14-9----5-9-4-5-12-14----9-5-9-14-9-5-|
B|---------------------------------------------------------------|
G|---------------------------------------------------------------|
D|---------------------------------------------------------------|
A|---------------------------------------------------------------|
E|---------------------------------------------------------------|

E|4-2-0-2-5-2----5-9-4-9-2-0-----0-5-4-2-5----9-5-2---2---|
B|------------------------------2-------------------2-----|
G|------------------------------------------------------2-|
D|--------------------------------------------------------|
A|--------------------------------------------------------|
E|--------------------------------------------------------|

E|--2-5-2--------2-0-------------2-0-------------------2-5-9-|
B|2-------2----------3-2---2---------2-0-------------2-------|
G|----------2------------2---------------2-1-------2---------|
D|-----------------------------------------------4-----------|
A|-----------------------------------------------------------|
E|-----------------------------------------------------------|

E|5-9-14-9-5-9----14-17-21----21----17-16--16--16--16-14-9-14-5-14-9-----1-45-14-9-14-5-|
B|---------------------------------------------------------------------------------------|
G|---------------------------------------------------------------------------------------|
D|---------------------------------------------------------------------------------------|
A|---------------------------------------------------------------------------------------|
E|---------------------------------------------------------------------------------------|

E|9-5-9-2-9-5----9-2-9-5-9-2-----16-13-16-9-16-13----16-9-16-13-16-9-|
B|-------------------------------------------------------------------|
G|-------------------------------------------------------------------|
D|-------------------------------------------------------------------|
A|-------------------------------------------------------------------|
E|-------------------------------------------------------------------|

E|2-9-14-5-14-9-----14-5-14-9-14-5-----17-14-17-9-17-14-----17-9-17-14-17-9-|
B|--------------------------------------------------------------------------|
G|--------------------------------------------------------------------------|
D|--------------------------------------------------------------------------|
A|--------------------------------------------------------------------------|
E|--------------------------------------------------------------------------|

E|7-7-12-4-12-7-----12-4-12-7-12-4-----7-12-16-7-16-12-----16-7-16-12-16-7-|
B|-------------------------------------------------------------------------|
G|-------------------------------------------------------------------------|
D|-------------------------------------------------------------------------|
A|-------------------------------------------------------------------------|
E|-------------------------------------------------------------------------|

E|9-9-14-5-14-9-----14-5-14-9-14-5-----14-9-14-5-14-9-----14-5-14-9-14-5-|
B|-----------------------------------------------------------------------|
G|-----------------------------------------------------------------------|
D|-----------------------------------------------------------------------|
A|-----------------------------------------------------------------------|
E|-----------------------------------------------------------------------|

E|14-10-14-7-14-10-----14-7-14-10-14-7-----8-11-14-8-14-11-----14-8-14-11-14-8-|
B|-----------------------------------------------------------------------------|
G|-----------------------------------------------------------------------------|
D|-----------------------------------------------------------------------------|
A|-----------------------------------------------------------------------------|
E|-----------------------------------------------------------------------------|

E|7-12-16-7-16-12-----16-7-16-12-16-7-----17-13-17-9-17-13-----17-9-17-13-17-9-|
B|-----------------------------------------------------------------------------|
G|-----------------------------------------------------------------------------|
D|-----------------------------------------------------------------------------|
A|-----------------------------------------------------------------------------|
E|-----------------------------------------------------------------------------|

E|2-14-17-9-17-14----14-7-14-10-14-7-----14-9-14-5-14-9-----14-7-14-10-14-7-----4---|
B|----------------------------------------------------------------------------------|
G|----------------------------------------------------------------------------------|
D|----------------------------------------------------------------------------------|
A|----------------------------------------------------------------------------------|
E|----------------------------------------------------------------------------------|

E|9-14-17-14-9-14----17-14-9-14-9-14----17-14-9-5-9-14----9-5-9-14-17-14|
B|----------------------------------------------------------------------|
G|----------------------------------------------------------------------|
D|----------------------------------------------------------------------|
A|----------------------------------------------------------------------|
E|----------------------------------------------------------------------|

E|4-14-17-14-9-14---21----17---16---16---16---16---5-----16---17-|
B|---------------------------------------------------------------|
G|---------------------------------------------------------------|
D|---------------------------------------------------------------|
A|---------------------------------------------------------------|
E|---------------------------------------------------------------|

E|6-----16---17|---------0-3-7----12-7-3----0---0----7--|
B|------------------0-------------------------0------7--|
G|----------------0-------------------------------------|
D|-------------| 2---------------------------------------|
A|------------------------------------------------------|
E|------------------------------------------------------|

E|--7-3-7-12-7----15-12-7-3-7-----12-7-3-7-12-15-----12-7-3-7-12-15|
B|17---------------------------------------------------------------|
G|-----------------------------------------------------------------|
D|-----------------------------------------------------------------|
A|-----------------------------------------------------------------|
E|-----------------------------------------------------------------|

E|12-7-3-7-12-15----12-7-12-15-19-15----12-7-12-15-19-24-----19-15-12-7-12-|
B|-------------------------------------------------------------------------|
G|-------------------------------------------------------------------------|
D|-------------------------------------------------------------------------|
A|-------------------------------------------------------------------------|
E|-------------------------------------------------------------------------|

E|-15-12-15-19-15-12----8-7-3-7-12-15----12-7-3-0-3-7-----3-0-------0-|
B|------------------------------------------------------------0---0---|
G|--------------------------------------------------------------0-----|
D|--------------------------------------------------------------------|
A|--------------------------------------------------------------------|
E|--------------------------------------------------------------------|

E|0-3-7-3-0--------------------------------------------0-------------------0-7-|
B|----------0--------0-------0-----3-0---------------0---0---------------------|
G|-----------------0---0---0-----------0---0-------0-------0-------------------|
D|-----------------------2---------------2---2---------------2--4-----2--------|
A|-----------------------------------------------------------------------------|
E|-----------------------------------------------------------------------------|

E|-12--11---7--8-7-5-3-2-3---0-| 12---14---15---17---19---20|
B|---------------------------------------------------------|
G|---------------------------------------------------------|
D|---------------------------------------------------------|
A|---------------------------------------------------------|
E|---------------------------------------------------------|

E|24-----22|
B|---------|
G|---------|
D|---------|
A|---------|
E|---------|

Em               D
En su castillo pasaba las noches
    Em                 B  B/A
El mago buscando el poder
G                 D                    C        B         Em     C-B
Que devolviera su hada, su amor, su mirada tan dulce de ayer
Em                  D
Y no paró desde entonces
             Em             B  B/A
Buscando la forma de recuperar
G                     D
A la mujer que aquel día
          C              B            Em
En medio del bosque por fin pudo amar

[Refrão]

C               Em        D  D#/F#       G   G#dim
Y hoy sabe que es el amor... y que tendrá
Am               A#dim          Bsus4   B
Fuerzas para soportar aquel conju...   ro
E            Am        D                G
Sabe que un día verá su dulce hada llegar
C              F#              Bsus  B  Em
Y para siempre con él se quedará

[Final]

E|---------------------------0------| 0-2-3-2-3-5-----3-2-3-0-2-3------2-3-5-3-2-3-----0-2-3-2-3-5|
B|-----------------------------------------------------------------------------------------------|
G|-----------------------------------------------------------------------------------------------|
D|2----------------------------------------------------------------------------------------------|
A|-----------------------------------------------------------------------------------------------|
E|-----------------------------------------------------------------------------------------------|

E|3-2-0---0-2------0-------------------------------------------------------------------------------|
B|------3------------3-1-3-1-0-------1------0-1-0---0------------0-1-3--------0-1-0---1-0----------|
G|----------------------------------------2-------2----------0-2-------2------------2------------2-|
D|-------------------------------------------------------------------------------------------------|
A|-------------------------------------------------------------------------------------------------|
E|-------------------------------------------------------------------------------------------------|

E|-------17--------3-----3-2-0-------0-2------3-5-2-3-2-0----2---0-2-3-0------2-3-------0-----3----2------3|
B|-------------------------------------------------------------3------------------3-1-3--------------------|
G|---------------------------------------------------------------------------------------------------------|
D|---------------------------------------------------------------------------------------------------------|
A|---------------------------------------------------------------------------------------------------------|
E|---------------------------------------------------------------------------------------------------------|

E|-3-----2-3-2-3-----0-------5-------3-----2-3-2-3-----0------12----14-|
B|---------------------------------------------------------------------|
G|---------------------------------------------------------------------|
D|---------------------------------------------------------------------|
A|---------------------------------------------------------------------|
E|---------------------------------------------------------------------|

E|15-17-15-14-12-14------15-14-12-10-12-15-----14-12-10-15-14-12------10-8-10-14-12-10-|
B|-------------------------------------------------------------------------------------|
G|-------------------------------------------------------------------------------------|
D|-------------------------------------------------------------------------------------|
A|-------------------------------------------------------------------------------------|
E|-------------------------------------------------------------------------------------|

E|-12-14-12-10-8-10------12-15-14-12-10-8------15-14-12-10-8-10-----12-12-12-12-12-12-|
B|------------------------------------------------------------------------------------|
G|------------------------------------------------------------------------------------|
D|------------------------------------------------------------------------------------|
A|------------------------------------------------------------------------------------|
E|------------------------------------------------------------------------------------|

E|-14-14-14-14-14-14------15-15-15-15-15-15-----17-17-17-17-17-17----15|
B|---------------------------------------------------------------------|
G|---------------------------------------------------------------------|
D|---------------------------------------------------------------------|
A|---------------------------------------------------------------------|
E|---------------------------------------------------------------------|

E|--12----14-15-14-----14-12-14-12-15-14------10-12-14-12-8-10----12-|
B|-------------------------------------------------------------------|
G|-------------------------------------------------------------------|
D|-------------------------------------------------------------------|
A|-------------------------------------------------------------------|
E|-------------------------------------------------------------------|

E|-------------------------------------------0---------0-2-0-2-3---2-3-5-3-5-7------5-7-8-7-8-10------8-10-12-10-12-14------12-14-15-14-15-17|
B|---------------------0---0-1-----0-1-3-1-3---------3---------------------------------------------------------------------------------------|
G|-----0---0-2-----0-2---2-------------------------------------------------------------------------------------------------------------------|
D|-2-4---4-----------------------------------------------------------------------------------------------------------------------------------|
A|-------------------------------------------------------------------------------------------------------------------------------------------|
E|-------------------------------------------------------------------------------------------------------------------------------------------|

E|15-17-19-17-19-20------19-17-19-20-19-20-------22-20-22-24-22-20------22-24-22-24-14-24---24-14-24-14-15-17------19----12-|
B|-----------------------------------------------------------------------------------------------------------------------12-|
G|------------------------------------------------------------------------------------------------------------------------9-|
D|--------------------------------------------------------------------------------------------------------------------------|
A|--------------------------------------------------------------------------------------------------------------------------|
E|--------------------------------------------------------------------------------------------------------------------------|
Composição de Hector Walter Giardino / Roxana Clara Giardino
Colaboração e revisão:
30.879 exibições
    • ½ Tom
    • Am
    • Bbm
    • Bm
    • Cm
    • C#m
    • Dm
    • Ebm
    • Em
    • Fm
    • F#m
    • Gm
    • G#m
  • Adicionar à lista

    0 comentários

    Ver todos os comentários

    Conseguiu tocar?

    6 Tocaram 1 Ainda não

    Grave um vídeo tocando La Leyenda Del Hada Y El Mago e nos envie!

    00:00 / 00:00
    Outros vídeos desta música
    Repetir Qualidade Automático
    Outros vídeos desta música
    00:00 / 00:00
    Automático

    Cifra Club Pro

    Aproveite o Cifra Club com benefícios exclusivos e sem anúncios
    Cifra Club Pro
    Aproveite o Cifra Club com benefícios exclusivos e sem anúncios
    OK