Cifra Club

Aprenda

Aun estás en mis sueños

Rata Blanca

Cifra: Principal (violão e guitarra)
tom: G#m
Riff 1:
B|-12-11h12p11-----12b(14)r-11-------------|
G|-------------11-------------11-11(13)-9b-|

Riff 2:
G|-8-8----------------|
D|-----11-9-9p11bv----|

Riff 3:
E|---------------------------|
B|---------------------------|
G|--------------8-6---6-8-6b-|
D|-9-8-6--9-8-6-----9--------|
A|---------------------------|
E|---------------------------|

Riff 4:
E|-----------------------------|
B|-----------------------------|
G|--------------11-9-8---------|
D|-9-8-6--9-8-6--------11-9-8b-|
A|-----------------------------|
E|-----------------------------|

Intro:
E|-------------------------------------------------|
B|-------------------------------------------------|
G|----4-4-------6-6--6-6-6s4----4-4----------------|
D|-6--4-4--4-4--6-6--6-6-6s4-6--4-4--4-4--2-2--2-2-|
A|-6--2-2--4-4--4-4--4-4-4s2-6--2-2--4-4--2-2--2-2-|
E|-4-------2-2---------------4-------2-2--0-0--0-0-|

E|------------------------------------------|
B|------------------------------------------|
G|----4-4-------6-6--6-6-6s4----4-4---------|
D|-6--4-4--4-4--6-6--6-6-6s4-6--4-4--4-4--2-|
A|-6--2-2--4-4--4-4--4-4-4s2-6--2-2--4-4--2-|
E|-4-------2-2---------------4-------2-2--0-|

Verso 1:
 E                      B
Hoy desperté con un montón de marcas en mi piel
C#m        G#m                F#
Alguien por la noche me las dejo
 E                          B
Quiero saber si esta fue la magia de tus labios
C#m         G#m    C#m          G#m
Hay perfume de mujer brotando aquí
      E           D#m       C#m B         F#     E        D#
El conjuro de un cuento de amor ya me atrapo lo puedo sentir

Coro:
G#m        E      B                   F#
Y por las noches puedo sentir su calor
G#m        E        B                D#
Su dulce magia me hace perder la razón
G#m        E     B                   F#
Y de mis sueños creo que un día escapo
G#m        E     B                D#
Para esconderse dentro de mi corazón

(Rep. Intro)

Verso 2:
 E                  B
Como escapar nada real me importa conocer
C#m        G#m          F# (Riff 1)
Solo esperare hasta dormir

E                           B                (Riff 2)
Estoy aquí frente al gran espejo para convencer

C#m            G#m     C#m      G#m
A los duendes que dirán como llegar
E                D#m   C#m
A aprender el hechizo real
     B        F#         E        D#
que junte los sueños con la realidad

Coro:
G#m        E      B                   F#
Y por las noches puedo sentir su calor
G#m        E        B                D#
Su dulce magia me hace perder la razón
G#m        E     B                   F#
Y de mis sueños creo que un día escapo
G#m        E     B                D#
Para esconderse dentro de mi corazón
     D#5
Ooohh.....

Solo:
E|---------------------------------------------------------------|
B|-7-9-7---------------------------------------------------------|
G|-------9-6b(8)r-6---6-8-8p6---6--1s4vv--4-3h4p3p1--4-3h4p3p1s6-|
D|------------------9---------9----------------------------------|
A|---------------------------------------------------------------|
E|---------------------------------------------------------------|

 |<---------------------- Rápido -------------------------->|
E|----------------------------------------------------------|
B|-7p4---7p4h7p4---7p4h7p4----------------------------------|
G|-----6---------6---------64646464-------------------------|
D|----------------------------------646464------------------|
A|-----------------------------------------747474-----------|
E|-------------------------------------------------7--4v----|

 |<---- En esta parte meterle harto feeling -------
E|----14-16-14p16b-12h14p12h11p12b-11h12p14p12p14b-|
B|-16----------------------------------------------|
G|-------------------------------------------------|
D|-------------------------------------------------|
A|-------------------------------------------------|
E|-------------------------------------------------|

E|-------------------------------| >|
B|-11h12p14p12p14b-12p11----------|
G|----------------------14p12p14b-|
D|--------------------------------|
A|--------------------------------|
E|--------------------------------|
E|--------------------------------|

 |<------------ Súper Rápido ------------------->|
E|-----------------------------------------------|
B|-1214121412------------------------------------|
G|------------13111311---------------------------|
D|---------------------14111411-----------11b----|
A|-----------------------------1411141114-11b----|
E|-----------------------------------------9b----|

E|------------------------------------------------------------------|
B|----------------------------12-14-14s16-14-12-11-9-7-5-s8-5-4-2---|
G|-13-11h13p11----13h13p11------------------------------------------|
D|-------------14----------14-------------------------------------6-|
A|------------------------------------------------------------------|
E|------------------------------------------------------------------|

Coro:
G#m        E      B                   F#
Y por las noches puedo sentir su calor
G#m       E        B                D#
Su dulce magia me hace perder la razón
G#m        E      B                  F#
Y de mis sueños creo que un día escapo
G#m        E     B                D#
Para esconderse dentro de mi corazón
Composição de Rata Blanca
29 exibições
    • ½ Tom
    • Am
    • Bbm
    • Bm
    • Cm
    • C#m
    • Dm
    • Ebm
    • Em
    • Fm
    • F#m
    • Gm
    • G#m
  • Adicionar à lista

    0 comentários

    Ver todos os comentários

    Conseguiu tocar?

    0 Tocaram 0 Ainda não

    Grave um vídeo tocando Aun estás en mis sueños e nos envie!

    00:00 / 00:00
    Outros vídeos desta música
    Repetir Qualidade Automático
    Outros vídeos desta música
    00:00 / 00:00
    Automático

    Cifra Club Pro

    Aproveite o Cifra Club com benefícios exclusivos e sem anúncios
    Cifra Club Pro
    Aproveite o Cifra Club com benefícios exclusivos e sem anúncios
    OK