Cifra Club

Aprenda

Por Que Es Tan Dificil Amar

Rata Blanca

Cifra: Principal (violão e guitarra)
tom: C
NOTA:   ESTA TRANSCRIPCIÓN REQUIERE DE MUCHO "TOQUE" AL INTERPRETARLA, TODA
        ELLA SUENA MUY PARECIDA AL TEMA ORIGINAL, PUEDE HABER ALGUNOS ERRORES
        EN LAS PARTES MÁS RÁPIDAS PERO LAS NOTAS EN DICHAS PARTES SE CONSERVAN
        EN EL TONO EN QUE SE TOCA LA CANCIÓN (Bm). ESPERO QUE LA DISFRUTEN.


INTRO: (sin distorsión)

|------------------|-----------------------------|-------------------------------------------|
|------------------|-----------------------------|-------------------------------------------|
|-9/11-------------|--11--11h12--9---------------|-----------------12--11h12p11--------------|
|------9---9-11-12-|---------------11-12-12/14---|----11-12-12/14---------------14--12/14-12-|
|------------------|-----------------------------|-------------------------------------------|
|------------------|-----------------------------|-------------------------------------------|

|--------------------|-------------------------------------------------------------|
|--------------------|-------------------------------------------------------------|
|--------------------|----11--------------11--12-/-14--12~----11p9--11/12~---------|
|-11------12~~~------|-------12-----12-14------------------------------------------|
|----14--------------|----------14-------------------------------------------------|
|--------------------|-------------------------------------------------------------|

|-----------------------------------------------------|
|-----------------------------------------------------|
|----9--------------9-11h12---11~-----9p7--9/11~------|
|------11----11-12------------------------------------|
|---------12------------------------------------------|
|-----------------------------------------------------|

|---------------------------------------------------------------|
|---------------------------------------------------------------|
|----7-----------------9/11--9----------------------------------|
|------9-----9--11--12---------12p11--14---14-/-16-\-14p12~~----|
|--------10-----------------------------------------------------|
|---------------------------------------------------------------|

(con distorsión)
|-------------------------------12------------------------------|
|---12------15------15----------15b(17)r15---14~~---------------|
|---14b(16)-17b(19)-17b(19)~------------------------------------|
|---------------------------------------------------------------|
|---------------------------------------------------------------|
|---------------------------------------------------------------|

|---14--11------------------------------------------------------------|
|----------12------------------12p10------------------8---------------|
|--------------11-/-14~~~*------------12/14--10----9(x)--7-9p7--6~~~*-|
|---------------------------------------------------------------------|
|---------------------------------------------------------------------|
|---------------------------------------------------------------------|
  *(utilizar barra de tremolo)

|---12--9-------------------------------------------------------------|
|----------10------------------10p8---------------------7-------------|
|--------------9-/-12~~~*-------------11/12--11-------7---6-7p6-------|
|--------------------------------------------------7(x)---------9~~~*-|
|---------------------------------------------------------------------|
|---------------------------------------------------------------------|

|---10--7-----------------------------------------------------14------------------|
|----------8-------------------8p7---------------12-14-11~----17b-19-r17--15~~----|
|--------------7-/-11~~~*-------------9/11---9------------------------------------|
|---------------------------------------------------------------------------------|
|---------------------------------------------------------------------------------|
|---------------------------------------------------------------------------------|

|--------------------------------------------|---17b-17b-17b-17b-17b-17b---|
|---15-14----15-14----14-------------14------|-----------------------------|
|---------16-------16----16-15-15-16----16---|-----------------------------|
|--------------------------------------------|-----------------------------|
|--------------------------------------------|-----------------------------|
|--------------------------------------------|-----------------------------|

         >**  <  >  <  >  <  >      <  >  <  >  <  >  <  >     <  >  <  >  <  >  <  >
|---17p15~~--14~~--------------|---17~~--14~~--------------|---------------------------|
|------------------17~~--15~~--|---------------15~~--14~~--|--17~~--19~~--17~~--18~~---|
|------------------------------|---------------------------|---------------------------|
|------------------------------|---------------------------|---------------------------|
|------------------------------|---------------------------|---------------------------|
|------------------------------|---------------------------|---------------------------|
                                 **(subir y bajar volumen en c/nota)
     <  >  <  >  <  >  <  >
|------------------------------|
|---19~~--17~~--15~~--14~~-----|
|------------------------------|
|------------------------------|
|------------------------------|
|------------------------------|

(entrada de batería)
|------------------------------------------|---------------------------------------------|
|------------------------------------------|---17b----17--15h16p15h16p15-----------------|
|---9b---7-6-7~---6-7/9~~------------------|-----------------------------16b(18)r16------|
|------------------------------------------|----------------------------------------15~--|
|--------------------------10-9-10--9-7----|---------------------------------------------|
|------------------------------------------|---------------------------------------------|

|-------------------------------------|-----------11--12-12/14--15-15b(17)r15-----|
|-----12-14-15b(17)r15--14-15~~-------|-----12-14---------------------------------|
|--15---------------------------------|--15---------------------------------------|
|-------------------------------------|-------------------------------------------|
|-------------------------------------|-------------------------------------------|
|-------------------------------------|-------------------------------------------|

|---19b-19-17-17b(19)r17--15h17p15\14p15------------|
|----------------------------------------17b--17~---|
|---------------------------------------------------|
|---------------------------------------------------|
|---------------------------------------------------|
|---------------------------------------------------|

                                  1/2
|--17b--17-----------------------------------------------------|
|---------15--15b--14--12--------------------------------------|
|-------------------------14--14b(15)r14--12--12h14p12\9--11~~-|
|--------------------------------------------------------------|
|--------------------------------------------------------------|
|--------------------------------------------------------------|

|------------------------------------------------|----------------------------------------------|
|------------------------------------------------|----------------------------------------------|
|--12p11--12/14\12--11h12p11---------------------|----------------------------------------------|
|-----------------------------14--12--11---------|----------------------------------------------|
|-----------------------------------------14~~---|---12--11--12/14~~-7--9--11--11/12--11--9--7--|
|------------------------------------------------|----------------------------------------------|

|------------------------------|---------------------------|
|------------------------------|--17b--17--15b(17)r15--14--|
|--9--7h9p7-6~--9b(11)r9--7~~--|---------------------------|
|------------------------------|---------------------------|
|------------------------------|---------------------------|
|------------------------------|---------------------------|
                        rápido
       |****************************************************|
|----------------------------------------------------------------------------------|
|--12--11h12h14p11-------11h12h14p11-------11h12h14p11---------12b(14)r12--11-12~--|
|------------------12h14-------------12h14-------------12h14-----------------------|
|----------------------------------------------------------------------------------|
|----------------------------------------------------------------------------------|
|----------------------------------------------------------------------------------|

        a.h.
|--17b--17b--17b--17b17b17b\---|--14--15--17--15h17--15--14--15--14h15p14-12--|
|------------------------------|----------------------------------------------|
|------------------------------|----------------------------------------------|
|------------------------------|----------------------------------------------|
|------------------------------|----------------------------------------------|
|------------------------------|----------------------------------------------|

|--12/14---14h14p12---------------------|--------------------------------------------------------|
|------------------15--12b--12b---------|--------------------------------------------------------|
|--------------------------------14\----|--14b(16)r14--12-14b(16)r14--12--12h14p12\9--11---------|
|---------------------------------------|------------------------------------------------14-12~~-|
|---------------------------------------|--------------------------------------------------------|
|---------------------------------------|--------------------------------------------------------|

|----------------------------|----------------------------------------------------------------------------------|
|----------------------------|--17--15h17p15--14------17b(19)r17--15-17-----------14p12h14p12\11----------------|
|----------------------------|-------------------16---------------------12-11-12----------------12h14p12p11-----|
|--12p11--12/14\12--11--9~~--|------------------------------------------------------------------------------14\-|
|----------------------------|----------------------------------------------------------------------------------|
|----------------------------|----------------------------------------------------------------------------------|

|-------------------------------------------------------------------------------------|
|-----------------------------------17--15h17p15-14-15--14----------------------------|
|--12b--12-11-12-11h12-------------------------------------16b(18)r16--15--16~~~~\----|
|----------------------14-12-11\9-----------------------------------------------------|
|-------------------------------------------------------------------------------------|
|-------------------------------------------------------------------------------------|

(2a Parte)                                                                        Rápido
                                                                          |*********************|
|--0-----------------------------------------------|---------------------------------------------------------|
|----10b(12)r10~~---------5--8p7-5h7---------------|---------------------------------------------------------|
|------------------4-6-7-------------7-6-7-9p7-----|--7---7/9--7h9p7--5~--0-2-4-0----------------------------|
|----------------------------------------------9~~-|----9-------------------------0-2-4-0--------------------|
|--------------------------------------------------|--------------------------------------0-2-4-0--------2~--|
|--------------------------------------------------|-----------------------------------------------3--2------|

                                                                                    trino
|--------------------------------------------------------|------------------17b-17--15(17)------17--------------------|
|--12h14p12\11h12----------------12-14-12h14p12\10-------|--17-15h17p15-14-----------------17b-----17-17b(19)r17-15~~-|
|-----------------14-12-11-9-9-9-------------------12-12-|------------------------------------------------------------|
|--------------------------------------------------------|------------------------------------------------------------|
|--------------------------------------------------------|------------------------------------------------------------|
|--------------------------------------------------------|------------------------------------------------------------|
                                                            Rápido
                                  |*********************************************************|
|------------------------------|--------------------------------------------------------------------------|
|--14-15-15/17\15-14-12~~~~*---|--12-14-15p14p12-12h14p12---12--------------------------------------------|
|------------------------------|-------------------------14----14-12h14p12-11h12p11-----------------------|
|------------------------------|----------------------------------------------------14-12-11brbrb-(11)~~--|
|------------------------------|--------------------------------------------------------------------------|
|------------------------------|--------------------------------------------------------------------------|
 *con barra de tremolo                                                       Rápido.................
                                                    |***********************************************
|--------------------------------------------------------------------------------------------------|
|--10h12p10\8-7~~---10b(12)r10--7-8--7h8p7--5-7-8/10-----------------------------------------------|
|----------------------------------------------------7777--7777---7h9p7--7-------------------------|
|----------------------------------------------------------------------9---9-7h9p7--7--------------|
|---------------------------------------------------------------------------------9---9-7h9p7--7---|
|--------------------------------------------------------------------------------------------9---9-|
........................
***********************|
|------------------------------|-------------------------------------------------------|
|------------------------------|-------------------------------------------------------|
|------------------------------|--7/9--7(a.h.)--7h9p7--7---7-7h9p7-9b--9-9b(11)r9--7~~-|
|------------------------------|-------------------------9-----------------------------|
|------------------------------|-------------------------------------------------------|
|--7h9p7-5h7p7-3h5p3--2~~~~----|-------------------------------------------------------|

|-------------------------------------------------------|--17b--17b--17b--17--15h17p15--14--12---------|
|--12--14-15-14-12-14-15-14-12-14-15-14-12b-12b-12/14~~-|--------------------------------------15--14--|
|-------------------------------------------------------|----------------------------------------------|
|-------------------------------------------------------|----------------------------------------------|
|-------------------------------------------------------|----------------------------------------------|
|-------------------------------------------------------|----------------------------------------------|

|--/17--15h17p15--14--12-------------|--15--14h15p14--12-----------------|
|------------------------15--14--12--|-------------------15--14--12--11--|
|------------------------------------|-----------------------------------|
|------------------------------------|-----------------------------------|
|------------------------------------|-----------------------------------|
|------------------------------------|-----------------------------------|

                                                                                                              *(con barra de tremolo)
|--17b--17-15-17b-15-17b-15-17brbrbr(17)\--|--14-14-15-15h17-15--15-17-17h19-17--12-14-12-12h14-12h14-14~~~~~~~~--|
|------------------------------------------|----------------------------------------------------------15~~~~~~~~--|
|------------------------------------------|----------------------------------------------------------------------|
|------------------------------------------|----------------------------------------------------------------------|
|------------------------------------------|----------------------------------------------------------------------|
|------------------------------------------|----------------------------------------------------------------------|

 (sin distorsión)
|--10--12--14--14/15--14--12--10---9-|--7---9-10--10/12--12\10\9---9/10~~~--|
|--12--14--15--15/17--15--14--12--10-|--8--10-12--12/14--14\12\10-10/12~~~--|
|------------------------------------|--------------------------------------|
|------------------------------------|--------------------------------------|
|------------------------------------|--------------------------------------|
|------------------------------------|--------------------------------------|

|-7---9---10----|--------7----------------|________________
|---7---7----7--|-------7-----------------||              |
|---------------|------7------------------||     FIN      |
|---------------|-----9-------------------||______________|
|---------------|----9--------------------|
|---------------|---7---------------------|


EXPLICACION DE TABLATURA:

    b: bending o estirar la cuerda
    r: release o bajar la cuerda estando en bending
    p: pull off o ligado descendente
    h: hammer on o ligado ascendente
    /: arrastre ascendente
    \: arrastre descendente
trino: ligado ascendente y descendente entre las notas señaladas de una manera continua
 a.h.: artificial harmonic o harmónico artificial 
    ~: vibrato
  (x): cuerda ahogada
Composição de Walter Giardino
Colaboração e revisão:
  • Yuri Rocha
7.086 exibições
    • ½ Tom
    • A
    • Bb
    • B
    • C
    • Db
    • D
    • Eb
    • E
    • F
    • F#
    • G
    • Ab
  • Adicionar à lista

    0 comentários

    Ver todos os comentários

    Conseguiu tocar?

    0 Tocaram 0 Ainda não

    Grave um vídeo tocando Por Que Es Tan Dificil Amar e nos envie!

    00:00 / 00:00
    Outros vídeos desta música
    Repetir Qualidade Automático
    Outros vídeos desta música
    00:00 / 00:00
    Automático

    Cifra Club Pro

    Aproveite o Cifra Club com benefícios exclusivos e sem anúncios
    Cifra Club Pro
    Aproveite o Cifra Club com benefícios exclusivos e sem anúncios
    OK