Cifra Club

Aprenda

Guerrero Del Arco Iris

Rata Blanca

Cifra: Principal (violão e guitarra)
tom: G
INTRO:

      Am
E|-----------------------------------------------------------------|
B|-----------------------------------------------------------------|    Se repite
G|-----------------------------------------------------------------|    dos veces
D|-----------------------------------------------------------------|    acompañado
A|---0-0-0-0-0-3-5-7-0-0-0-0-0-8-7-5-0-0-0-0-0-3-5-7-8-7-5-7-5-3---|    en A
E|-----------------------------------------------------------------|

      F                               D               F
E|-----------------------------------------------------------------|
B|-----------------------------------------------------------------|
G|-----------------------------------------------------------------|
D|-----------------------------------------------------------------|
A|---0-0-0-0-0-3-5-7-0-0-0-0-0-8-7-5-0-0-0-0-0-3-5-7-8-7-5-7-5-3---|
E|-----------------------------------------------------------------|

      Am
E|---------------------------------------------------------------------------|
B|---------------------------------------------------------------------------|
G|---------------------------------------------------------------------------|
D|---------------------------------------------------------------------------|
A|---0-0-0-0-0-3-5-7-0-0-0-0-0-8-7-5-0-0-0-0-0-3-5-7-8-7-5---7-5----5--------|
E|---------------------------------------------------------8----8-7--8-7-5---|

Intro: 
Am Am Am Am
F F D F
Am Am Am Am

F#m         B/F#             D/F#
   sufriendo... nuestra inconciencia
F#m              B/F#      D/F#
   tal vez pueda morir
F#m         B/F#         D/F#
   la tierra... hoy se desangra
F#m                    B/F#   D   E
   ¿qué harás sin su existir?

A  E   F#m    C#     D  D#dim          E     D
 ayúdame tu ser también    es de este mundo
A     E    F#m   C#     D  D#dim             C#  D  E
 tus hijos no podrán vivir...    entre el dolor

Cifra Intro: 
Am Am Am Am
F F D F
Am Am Am Am

F#m         B/F#             D/F#
   peleemos...  contra los tontos
F#m                   B/F#   D/F#
   que harán nuestro final
F#m       B/F#             D/F#
   la vida... la da esta tierra
F#m             B/F#     D   E
   no hay otro lugar

A  E   F#m    C#     D  D#dim          E     D
 ayúdame tu ser también    es de este mundo
A     E    F#m   C#     D  D#dim             E
 tus hijos no podrán vivir...    entre el dolor
    
Interludio (Half time)
        Bm  D  A  E
        Bm  D  E  E
Solo
        A E F#m C# D D#dim Esus4 E
        A E F#m C# D D#dim C#... D E

        F#m F#m F#m F#m A E/G#
        F#m F#m F#m F#m A E/G#
        F#m F#m F#m F#m A E/G#
        F#m F#m F#m F#m A E/G#

        D  D#dim E Fdim

        F# F# B5 A5
        F# F# B5 C#5
        F# F# B5 A5  A E/G#
        F# F# B5 A5
        F# F# B5 C#5
        F# F# B5 A5  A E/G#

F#m        B/F#         D/F#
   Guerrero... sólo tu puedes
F#m              B/F#      D/F#
   Ganar con la verdad
F#m        B/F#             D/F#
   Luchemos... por los que vienen
F#m              B/F#   D   E
   Por ver felicidad

A  E   F#m    C#     D  D#dim          E     D
 ayúdame tu ser también    es de este mundo
A     E    F#m   C#     D  D#dim             C#  D  E
 tus hijos no podrán vivir...    entre el dolor

Cifra Outro: 
Am Am Am Am
F F D F
Am Am Am Am
G#dim
Am... 
G C
Composição de Walter Giardino
Colaboração e revisão:
  • Victor Ossa
  • Yuri Rocha
4.240 exibições
    • ½ Tom
    • A
    • Bb
    • B
    • C
    • Db
    • D
    • Eb
    • E
    • F
    • F#
    • G
    • Ab
  • Adicionar à lista

    0 comentários

    Ver todos os comentários

    Conseguiu tocar?

    0 Tocaram 0 Ainda não

    Grave um vídeo tocando Guerrero Del Arco Iris e nos envie!

    00:00 / 00:00
    Outros vídeos desta música
    Repetir Qualidade Automático
    Outros vídeos desta música
    00:00 / 00:00
    Automático

    Cifra Club Pro

    Aproveite o Cifra Club com benefícios exclusivos e sem anúncios
    Cifra Club Pro
    Aproveite o Cifra Club com benefícios exclusivos e sem anúncios
    OK