Cifra Club

Aprenda

Preludio Obsesivo

Rata Blanca

Cifra: Principal (violão e guitarra)
tom: C
                            2 timez 
e|-8p5----8p5----12p8-----12p8------13p10-----13p10-----10p7---10p7---| 
B|-----5------5-------10-------10---------12--------12-------9------9-| 
G|--------------------------------------------------------------------| 
D|--------------------------------------------------------------------| 
A|--------------------------------------------------------------------| 
E|--------------------------------------------------------------------| 
 
e|-12p9----12p9-----15p12----15p12------13p10----13p10-----17p13----17p13----| 
B|------10------10--------14-------14---------10-------10--------15-------15-| 
G|---------------------------------------------------------------------------| 
D|---------------------------------------------------------------------------| 
A|---------------------------------------------------------------------------| 
E|---------------------------------------------------------------------------| 
 
e|-10p7---10p7----13p10----13p10-----12p8---13p8----13p8---12p8---| 
B|------8------8--------12-------12-------8------8-------8------8-| 
G|----------------------------------------------------------------| 
D|----------------------------------------------------------------| 
A|----------------------------------------------------------------| 
E|----------------------------------------------------------------| 
 
 
e|-8p5---8p5----12p8----12p8-----13p10----13p10-----16p13----16p13----| 
B|-----5-----5-------10------10--------12-------12--------15-------15-| 
G|--------------------------------------------------------------------| 
D|--------------------------------------------------------------------| 
A|--------------------------------------------------------------------| 
E|--------------------------------------------------------------------| 
 
 
e|-19p16-----16p13-----13p10----13p10----10p7----| 
B|-------18--------15--------10-------10------9--| 
G|-----------------------------------------------| 
D|-----------------------------------------------| 
A|-----------------------------------------------| 
E|-----------------------------------------------| 
 
e|-8p5----8p5----12p8-----12p8-----| 
B|-----5------5-------10-------10--| 
G|---------------------------------| 
D|---------------------------------| 
A|---------------------------------| 
E|---------------------------------| 
 
 
e|-19p16----16p13----13p10----10p7----| 
B|-------18-------15-------12------9--| 
G|------------------------------------| 
D|------------------------------------| 
A|------------------------------------| 
E|------------------------------------| 
 
 
e|-8p5----8p5----12p8-----12p8-----| 
B|-----5------5-------10-------10--| 
G|---------------------------------| 
D|---------------------------------| 
A|---------------------------------| 
E|---------------------------------| 
 
 
e|-19p16----16p13----13p10----10p7----| 
B|-------18-------15-------12------9--| 
G|------------------------------------| 
D|------------------------------------| 
A|------------------------------------| 
E|------------------------------------| 
 
e|-8p5----8p5----| 
B|-----5------5--| 
G|---------------| 
D|---------------| 
A|---------------| 
E|---------------| 
 
 
e|-10p7---10p7----12p8---12p8---13p10----13p10-----10p6---10p6---7p4---7p4----| 
B|------8------8-------8------8-------11-------11-------6------6-----6-----6--| 
G|----------------------------------------------------------------------------| 
D|----------------------------------------------------------------------------| 
A|----------------------------------------------------------------------------| 
E|----------------------------------------------------------------------------| 
 
e|-10p7---10p7----8p5---8p5----12p8----12p8----7p4---7p4----| 
B|------9------9------5------5------10-----10------6-----6--| 
G|----------------------------------------------------------| 
D|----------------------------------------------------------| 
A|----------------------------------------------------------| 
E|----------------------------------------------------------| 
 
e|-8p5---8p5---8p5---8p5----8p5---8p5---8p5---8p5---| 
B|-----5-----5-----5-----5------5-----5-----7-----7-| 
G|--------------------------------------------------| 
D|--------------------------------------------------| 
A|--------------------------------------------------| 
E|--------------------------------------------------| 
 
 
e|-11p8----11p8----14p11----14p11-----17p12----17p12----17p12----17p12----| 
B|------10------10-------13-------13--------13-------13-------13-------13-| 
G|------------------------------------------------------------------------| 
D|------------------------------------------------------------------------| 
A|------------------------------------------------------------------------| 
E|------------------------------------------------------------------------| 
 
 
|-16p12----16p12----16p12----16p12-----15p12----15p12----15p12----15p12----| 
|-------13-------13-------13-------13--------14-------14-------14-------14-| 
|--------------------------------------------------------------------------| 
|--------------------------------------------------------------------------| 
|--------------------------------------------------------------------------| 
|--------------------------------------------------------------------------| 
 
 
|-18p15----18p15----18p15----18p15----17p13----17p13----17p13----17p13----| 
|-------17-------17-------17-------17-------15-------15-------15-------15-| 
|-------------------------------------------------------------------------| 
|-------------------------------------------------------------------------| 
|-------------------------------------------------------------------------| 
|-------------------------------------------------------------------------| 
 
 
|-18p12----17p13----17p13----17p13----12p9----12p9----12p9----12p9----| 
|-------15-------15-------15-------15------11------11------11------11-| 
|---------------------------------------------------------------------| 
|---------------------------------------------------------------------| 
|---------------------------------------------------------------------| 
|---------------------------------------------------------------------| 
 
 
|-15p12----15p12----15p12----13p10----13p10----13p10----13p10----13p10----| 
|-------14-------14-------14-------10-------10-------10-------10-------12-| 
|-------------------------------------------------------------------------| 
|-------------------------------------------------------------------------| 
|-------------------------------------------------------------------------| 
|-------------------------------------------------------------------------| 
 
 
|-13p10----13p10----13p10----10p7----10p7---10p7---10p7----12p8----12p8----12p8---17p12---| 
|-------12-------12-------12------9-------9------9------9-------10------10------10-----13-| 
|-----------------------------------------------------------------------------------------| 
|-----------------------------------------------------------------------------------------| 
|-----------------------------------------------------------------------------------------| 
|-----------------------------------------------------------------------------------------| 
 
|-17p12----17p12----17p12----20p17----20p17----17p14----17p14----14p11----| 
|-------13-------13-------13-------19-------19-------16-------16-------13-| 
|-------------------------------------------------------------------------| 
|-------------------------------------------------------------------------| 
|-------------------------------------------------------------------------| 
|-------------------------------------------------------------------------| 
 
 
                                     
|-14p11----11p8----11p8----0-0-13-| 
|-------13------10------10--------| 
|---------------------------------| 
|---------------------------------| 
|---------------------------------| 
|---------------------------------| 
 
|-0-0-12-0-0-10-0-0-8-0-0-12-| 
|----------------------------| 
|----------------------------| 
|----------------------------| 
|----------------------------| 
|----------------------------| 
 
 
|-0-0-10-0-0-8-0-0-7-0-0-10-0-0-8-0-0-7-0-0-5-0-0-8-| 
|---------------------------------------------------| 
|---------------------------------------------------| 
|---------------------------------------------------| 
|---------------------------------------------------| 
|---------------------------------------------------| 
 
 
 
|-0-0-7-0-0-5-0-0-4-0-0-13-0-0-12-0-0-10-0-0-8-0-0-12-| 
|-----------------------------------------------------| 
|-----------------------------------------------------| 
|-----------------------------------------------------| 
|-----------------------------------------------------| 
|-----------------------------------------------------| 
 
 
|-0-0-10-0-0-8-0-0-7-0-0-10-0-0-8-0-0-7-0-0-5-0-0-8-| 
|---------------------------------------------------| 
|---------------------------------------------------| 
|---------------------------------------------------| 
|---------------------------------------------------| 
|---------------------------------------------------| 
 
 
 
|-0-0-7-0-0-5-0-0-4-5-7-4--5-7-8-5--7-8-10--7-8-10-12-8-| 
|-------------------------------------------------------| 
|-------------------------------------------------------| 
|-------------------------------------------------------| 
|-------------------------------------------------------| 
|-------------------------------------------------------| 
 
 
 
|-10-12-13-12-10------------------------------------------| 
|----------------13-12-10-12-9-10-------------------------| 
|---------------------------------9-10---------------14---| 
|--------------------------------------12-------------x---| 
|-----------------------------------------11b/----11-12---| 
|----------------------------------------------4----------|
Composição de Roberto Conso
Colaboração e revisão:
  • Yuri Rocha
5.944 exibições
    • ½ Tom
    • A
    • Bb
    • B
    • C
    • Db
    • D
    • Eb
    • E
    • F
    • F#
    • G
    • Ab
  • Adicionar à lista

    0 comentários

    Ver todos os comentários

    Conseguiu tocar?

    2 Tocaram 2 Ainda não

    Grave um vídeo tocando Preludio Obsesivo e nos envie!

    00:00 / 00:00
    Outros vídeos desta música
    Repetir Qualidade Automático
    Outros vídeos desta música
    00:00 / 00:00
    Automático

    Cifra Club Pro

    Aproveite o Cifra Club com benefícios exclusivos e sem anúncios
    Cifra Club Pro
    Aproveite o Cifra Club com benefícios exclusivos e sem anúncios
    OK