Notificações Amigos pendentes

      Rata Blanca

      El Sueno De La Gitana

      4.495 exibições
      Tom: F
      Intro:
      A)
      
      
      e |----------------------------------------------------|
      B |----------------------------------------------------|
      G |-15p-12----17p-12----15p-12----14p-12----15p-12-----| twice
      D |-------12--------12--------12--------12--------12---|
      A |----------------------------------------------------|
      E |----------------------------------------------------|
      
      
      B)
      
      
      e |-----------------------------------------|
      B |-----------------------------------------|
      G |-12p-8---10p-8---12p-8---10p-8--12p-8----| twice
      D |------8-------8-------8-------8------8---|
      A |-----------------------------------------|
      E |-----------------------------------------|
      
      
      C)
      
      
      e |---------------------------------|
      B |---------------------------------|
      G |-8p-5---7p-5---8p-5---7p-5---8~--| twice
      D |-----5------5------5------5------|
      A |---------------------------------|
      E |---------------------------------|
      
      
      e |--------------------------------------------------------------|
      B |----------------------------------------10p-7---11p-7---10p-7-|
      G |-11p-7---9p-7---11p-7---9p-7---11p-7---------7-------7-------7|
      D |------7------7-------7------7-------7-------------------------|
      A |--------------------------------------------------------------|
      E |--------------------------------------------------------------|
      
      
      e |-------------|
      B |--11p-7---10~|
      G |-------7-----|
      D |-------------|
      A |-------------|
      E |-------------|
      
      
      Repeat A) B) C)
      and then
      
      
      e |---------------------------------------------|
      B |--------------------------------/15-13-------|
      G |-11p-7---9p-7---11p-7---9p-7----------15-14~-|
      D |------7------7-------7------7----------------|
      A |---------------------------------------------|
      E |---------------------------------------------|
      
      
      Verse:
      
      
      G                       C          G
           Danza gitana, tu fuerza será
      
          D#          A#           F
           fuente de mi inspiración
      
          D
           En tu mirada, en tu boca de fuego
      
          G     D#      D
           está el amor.
      
          G                        C         G
           Saca la herrumbre, de todo mi ser
      
          D#        A#         F
           devuélveme la pasión
      
          D
           dama tu sangre, podrá hacer latir
      
          G     D#      D
           a mi corazón.
      
      
      Chorus:
          F             A#
           tus labios me pueden sanar
      
          D             G
           heridas del tiempo y quizás
      
          D#            G     D#      C      D
           un día me enseñes, toda la verdad
      
          F            A#
           Gitana tu puedes leer
      
          D            G
           mis manos y así conocer
      
          D#          G            D#        C         D
           que mi amor y tu amor, juntos quieren estar.
      
      Intro.
      
      Verse:
      
          G             C                    G
           Donde estarán esas brujas que ayer
      
          D#          A#            F
           mi fuerza hicieron morir
      
          D                                G    D#    D
           Ven a ayudarme, mi dulce gitana a revivir.
      
          G                   C                G
           no te das cuenta, lo solo que estoy
      
          D#          A#           F
           ven pronto, ven hacia mí
      
          D                                       G       D#    D
           solo el perfume de tu piel me haría, soñar, sentir
      
      Chorus:
      
          F        A#
           resulta difícil creer
      
          D         G
           cuanto necesito de vos
      
          D#            G     D#      C    D
           quisiera tenerte, tu boca besar
      
          F         A#
           Quizás algún día vendrás
      
          D             G
           Vendrás a calmar mi dolor
      
          D#         G          D#         C           D
           y tu amor y mi amor, juntos siempre estarán.
      
      Solo:
      
           e |-------------------------------------------------------------|
      B |------------------------------------------------------------------|
      G |-5b(7)5b(7)--/8-7-5-/7--/8-7-5-7-5----------/7777/77777777--------|
      D |----------------------------------8-7-8-7-5-----------------------|
      A |------------------------------------------------------------------|
      E |------------------------------------------------------------------|
      
      
      e |-------------|
      B |-------------|
      G |-5-7-8-7-5-7-|
      D |-------------|
      A |-------------|
      E |-------------|
      
      
      e |-----------------------------------------------------------|
      B |--6-----------------------------------------8-6---6--------|
      G |-8-8-7-5-------------------------5---5-7-5-7---8-7-8-7-5-7~|
      D |--------8-7-8-7-5---7-5-7-8-5-7-8-7-8---8------------------|
      A |-----------------------------------------------------------|
      E |-----------------------------------------------------------|
      
      
      e |-2-3-5-2-3-5-6-3-5-6-8-5-6-8-5-6-8-10-8-6-5-8-6-5-3--------|
      B |---------------------------------------------------4-3~----|
      G |-----------------------------------------------------------|
      D |-----------------------------------------------------------|
      A |-----------------------------------------------------------|
      E |-----------------------------------------------------------|
      
      
      e |-11p-8--13p-8--11p-8--13p-8--11p-8---6p-3--5p-3--6p-3--5p-3|
      B |------8------8------8------8------8------3-----3-----3-----|
      G |-----------------------------------------------------------|
      D |-----------------------------------------------------------|
      A |-----------------------------------------------------------|
      E |-----------------------------------------------------------|
      
      
      e |--6p-3--|
      B |3-----3-|
      G |--------|
      D |--------|
      A |--------|
      E |--------|
      
      
      e |-9------9--9-11-12-9-12-15-18-15-------------------------|
      B |--11--11-11---------------------19-17-19b(20)-19-17-/19~-|
      G |----11---------------------------------------------------|
      D |---------------------------------------------------------|
      A |---------------------------------------------------------|
      E |---------------------------------------------------------|
      
      
      e |-8p6p5-8p6p5-8p6p5-8p6p5-8p6p5-8p6p5-8p6p5-8p6p5-|
      B |-------------------------------------------------|
      G |-------------------------------------------------|
      D |-------------------------------------------------|
      A |-------------------------------------------------|
      E |-------------------------------------------------|
      
      
      e |-10p8p6-10p8p6-10p8p6-10p8p6-10p8p6-10p8p6-10p8p6-10p8p6---|
      B |-----------------------------------------------------------|
      G |-----------------------------------------------------------|
      D |-----------------------------------------------------------|
      A |-----------------------------------------------------------|
      E |-----------------------------------------------------------|
      
      
      e |-5p3p2-5p3p2-5p3p2-5p3p2-5p3p2-5p3p2-5p3p2-5-6p5p3-----6p5p3---/15~|
      B |--------------------------------------------------6p4p3-----6p4----|
      G |-------------------------------------------------------------------|
      D |-------------------------------------------------------------------|
      A |-------------------------------------------------------------------|
      E |-------------------------------------------------------------------|
      
      
      e |-b17(18)-17p15-15~-b17(18)-17p15-15~-b17(18)-17-15--15-17-15-|
      B |--------------------------------------------------17---------|
      G |-------------------------------------------------------------|
      D |-------------------------------------------------------------|
      A |-------------------------------------------------------------|
      E |-------------------------------------------------------------|
      
      
      e |14h15p14-------|
      B |--------16-15~-|
      G |---------------|
      D |---------------|
      A |---------------|
      E |---------------|
      
      
      e |----10-11-----/11-10-------/10-8---------/8------------------|
      B |-/13-----13~--------13-11~------11-10~-----11-10-11~--/13-15-|
      G |-------------------------------------------------------------|
      D |-------------------------------------------------------------|
      A |-------------------------------------------------------------|
      E |-------------------------------------------------------------|
      
      
      e |--/17~-/13-----/15~-|
      B |16--------16-15-----|
      G |--------------------|
      D |--------------------|
      A |--------------------|
      E |--------------------|
      
      
      e |----10-11---10-11--15------15---15-18-21-18-15-----------------|
      B |-/13------13---------17--17---17--------------17--17--/19-15~~-|
      G |-----------------------18-----------------------18-------------|
      D |---------------------------------------------------------------|
      A |---------------------------------------------------------------|
      E |---------------------------------------------------------------|
      
      
      
      Verse:
      
          G               C               G
           Danza gitana, hermosa y sensual
      
          D#         A#         F
           dame tu dulce verdad,
      
          D
           dame memoria, que ya no recuerdo
      
          G      D#     D
           lo que es amar.
      
          G                   C          G
           te esperaré y algún día veré
      
          D#          A#          F
           tus largas faldas volar
      
          D
           y sus colores darán nueva vida
      
          G       D#      D
           a mi ser verás.
      
      Chorus:
          F          A#
           Gitana por siempre serás
      
          D           G
           la fuerza que me salvará
      
          D#            G
           espero que llegues
      
          D#     C        D
           y juntos luchar.
      
          F           A#
           No debes negar tu misión
      
          D                 G
           lo escrito no puede cambiar
      
          D#          G
           mi canción te avisó
      
          D#          C         D
           yo solo puedo esperar.
      
      
      Intro
      
      
      END
        Composição: Walter Giardino

        Comentários 0

        140 .
        140 cancelar

        conseguiu tocar?

        covers

        Grave um vídeo tocando El Sueno De La Gitana e mande pra gente!

        Ex.: http://www.youtube.com/watch?v=0IvSvIwGdwk
        ver covers de outras músicas »
        0:00 / 0:00

        Capítulos

          1 versão de violão dificuldade exibições contribuição e correção
          1 versão de guitarra dificuldade exibições contribuição e correção
          1 versão de cavaco dificuldade exibições contribuição e correção
          1 versão de teclado dificuldade exibições contribuição e correção
          play/pausefechar subir/descer velocidade
          6ª corda E5ª corda A4ª corda D3ª corda G2ª corda B1ª corda E
            acordes
            publicidade
            fechar
            ok