Cifra Club

Aprenda

Give Until Theres Nothing Left

Relient K

Tab de baixo: Principal
Tabbed By : Hanson
e-mail: *

Tuning: Standard

Verse x2
G|----------------------------------------|
D|----------------------------------------|
A|--0(x16)-----------------5(x8)--0(x16)--|
E|----------2(x16)--0(x8)-----------------|

Chorus
G|-----------------------------------------------------|
D|-----------------------------------------------------|
A|--0(x16)----------2(x8)--5(x8)--7(x8)--5(x8)-----0~--|
E|----------0(x16)-------------------------------------|

Repeat Verse x2
Repeat Chorus x2

Bridge
G|-----------------------------------------|
D|-----------------------------------------|
A|--2~--5~--0(x16)--10(x16)--5(x8)--7(x8)--|
E|-----------------------------------------|

Repeat Chorus

Outro
G|------------------------------|
D|------------------------------|
A|--0~------2~--5~--7~--5~--0~--|
E|------0~----------------------|
Composição de Matthew Thiessen
405 exibições

0 comentários

Ver todos os comentários

Conseguiu tocar?

0 Tocaram 0 Ainda não

Grave um vídeo tocando Give Until Theres Nothing Left e nos envie!

00:00 / 00:00
Outros vídeos desta música
Repetir Qualidade Automático
Outros vídeos desta música
00:00 / 00:00
Automático

Cifra Club Pro

Aproveite o Cifra Club com benefícios exclusivos e sem anúncios
Cifra Club Pro
Aproveite o Cifra Club com benefícios exclusivos e sem anúncios
OK