Cifra Club

Agora só falta você

Rita Lee

Cifra: Principal
exibições 423.305
Tom: C
Intro: ( Am  F7M/C ) 3x

   Am             G     F
E|-0---0--0-0-0---3-----1-1-----------------|
B|-1---1--1-1-1---3-----1-1-----------------|
G|-2---2--2-2-2---0--X--2-2-----------------|
D|-2---2--2-2-2---0--X--3-3-----------------|
A|-0---0--0-0-0---2--X--3-3--------0-3------|
E|----------------3-----1-1--0-1-3----------|

   Am             G     F
E|-0---0--0-0-0---3-----1-1-----------------|
B|-1---1--1-1-1---3-----1-1-----------------|
G|-2---2--2-2-2---0--X--2-2-----------------|
D|-2---2--2-2-2---0--X--3-3-----------------|
A|-0---0--0-0-0---2--X--3-3--3-2---0-0------|
E|----------------3-----1-1------3----------|

   Am          G     F
E|-0--0--0-0-0-3-----1-1--------------------|
B|-1--1--1-1-1-3-----1-1--------------------|
G|-2--2--2-2-2-0--X--2-2--------------------|
D|-2--2--2-2-2-0--X--3-3--------------------|
A|-0--0--0-0-0-2--X--3-3--------------------|
E|-------------3-----1-1--0-1-0-1-2---------|

   G
E|-3----------------------------------------|
B|-3-----0h1--1---0------0--0---------------|
G|-0-----0----0---0------0--0---------------|
D|-0--0--0h2--2---0--0---0--0---------------|
A|-2--2--------------2----------------------|
E|-3--3--------------3----------------------|

Primeira Parte:

Am           G    F
   Um belo dia resolvi mudar
D                         G
  E fazer tudo o que eu queria fazer
Am              G    F
   Me libertei daquela vida vulgar
D                     G
  Que eu levava estando junto a você


Segunda Parte:

Am                   F
   E em tudo que eu faço
Am                G
   Existe um porquê
F
Eu sei que eu nasci
    D                      G
Eu sei que eu nasci pra saber

Passagem:

E|-----3-------5-------7-----8------10----------------|
B|-------0-------0------------------------------------|
G|-3/4-----4/5-----5/7---7/9---9/10----10-------------|
D|----------------------------------------------------|
A|----------------------------------------------------|
E|----------------------------------------------------|

Repete a Primeira Parte:

Am             G      F
   E fui andando sem pensar em voltar
D                      G
  E sem ligar pro que me aconteceu
Am           G       F
   Um belo dia vou lhe telefonar
D                        G
  Pra lhe dizer que aquele sonho cresceu

Repete a  Segunda Parte:

Am                  F
   No ar que eu respiro, uu
Am              G
   Eu sinto prazer

    F
De ser quem eu sou
      D
De estar onde estou

Refrão:

  Bb      F       C
Agora só falta você, iê, iê
  Bb      F       C
Agora só falta você, aaa
  Bb      F       C
Agora só falta você, iê, iê
  Bb      F       C
Agora só falta você

Base do Solo: ( Am G F D G ) (2x)
               Am F Am G F D G

Solo:

E|----------------------------------------------------|
B|---------------------------------------------1------|
G|--------5-5---5---5--5---5-----------------0---0----|
D|--------5-5h7-5---5--5h7-5---------------3-------3--|
A|-3-5/7----------7----------7-5h7-5-3-0-3------------|
E|----------------------------------------------------|

E|----------------------------------------------------|
B|---3------------------------------------------------|
G|-----0------0------------0--------0-----------------|
D|-0--------0------------0----------0-----------------|
A|--------3-----3-0--0h2------------------------------|
E|---------------------------3----3---3---------------|

E|-----0-0-0-0----------------------------------------|
B|--0--0-0-0-0---0-0---1-1-1--1-1---------------------|
G|--5--5-5-5-5---4-4---2-2-2--2-2---------------------|
D|--7--7-7-7-7---5-5---3-3-3--3-3---------------------|
A|---------------------3-3-3--3-3---------------------|
E|----------------------------------------------------|

E|---2------------------------------------------------|
B|-----3----------------------------------------------|
G|-------2-------------------0-------0----------------|
D|-0----------0------------0---------0----------------|
A|----------3-----3-0--0h2----------------------------|
E|-----------------------------3---3---3--------------|

E|--0-0-0-0--0-0-0-0---0---0-0----0-0-0---0-0-0-------|
B|--0-0-0-0--0-0-0-0---0---0-0----1-1-1---1-1-1-------|
G|--5-5-5-5--5-5-5-5---5---4-4----2-2-2---2-2-2-------|
D|--7-7-7-7--7-7-7-7---7---5-5----3-3-3---3-3-3-------|
A|--------------------------------3-3-3---3-3-3-------|
E|----------------------------------------------------|

E|--0-0-0-0--0-0-0-0---0---0-0----0-0-0---0-0-0-------|
B|--0-0-0-0--0-0-0-0---0---0-0----0-0-0---0-0-0-------|
G|--5-5-5-5--5-5-5-5---5---5-5----4-4-4---4-4-4-------|
D|--7-7-7-7--7-7-7-7---7---7-7----5-5-5---5-5-5-------|
A|----------------------------------------------------|
E|----------------------------------------------------|

E|----------------------------------------------------|
B|----1-----1------3-3-------3-3----------------------|
G|-2--2--2--2--2---2-2-------2-2----------------------|
D|-3--3--3--3--3---0-0-------0-0----------------------|
A|-3-----3-----3-------3-0-3--------------------------|
E|----------------------------------------------------|

E|-----3-------5-------7-----8------10----------------|
B|-------0-------0------------------------------------|
G|-3/4-----4/5-----5/7---7/9---9/10----10-------------|
D|----------------------------------------------------|
A|----------------------------------------------------|
E|----------------------------------------------------|

Repete a primeira parte:

Am             G      F
   E fui andando sem pensar em voltar
D                      G
  E sem ligar pro que me aconteceu
Am           G       F
   Um belo dia vou lhe telefonar
D                        G
  Pra lhe dizer que aquele sonho cresceu

Repete a Segunda Parte:

Am                  F
   No ar que eu respiro, uu
Am              G
   Eu sinto prazer
    F
De ser quem eu sou
      D
De estar onde estou

Repete Refrão:

  Bb      F       C
Agora só falta você, iê, iê
  Bb      F       C
Agora só falta você, aaa
  Bb      F       C
Agora só falta você, iê, iê
  Bb      F       C
Agora só falta você
Acordes para:
    Composição: Rita LeeColaboração e revisão:
    • Júnior Senna
    • Marcelo Egéa

    0 comentários

      mostrar mais comentários

      Conseguiu tocar?

      37tocaram1ainda não

      Grave um vídeo tocando Agora só falta você e mande pra gente!

      00:00 / 00:00
      outros vídeos desta música
      repetirqualidadeautomática
      Outro vídeos desta música
        00:00 / 00:00
        automática
        Capítulos
        • Início
        • Tocando a Música
        • Acordes Introdução
        • Tocando Introdução
        • Ritmo da Introdução
        • Ensinando Introdução
        • Acordes Primeira Parte
        • Tocando Primeira Parte
        • Ritmo Primeira Parte
        • Tocando Segunda Parte
        • Ensinando Passagem
        • Acordes Refrão
        • Tocando Refrão
        • Ritmo Refrão
        • Tocando Solo
        • Ensinando o Solo
        • Encerramento
        OK