Cifra Club

A Volta

Roberto Carlos

Tab de baixo: Principal
e mais ou menos fácil  só escute a musica e vera 
G------------------------------------------------- 
D------------------------------------------------- 
A-1-x-1-1-x------1-x-1-1-x------------------------- 
E----------------------------1-x-1-1-x----1-x-1-1-x 
 
G---------------------------------------------------
D--------------------------------------------------
A---6-x-6-6-x--6--------4-4-3-3---------------------
E-----------------4-x-4----------6-x-6-6--x-6----1-x-1-1-x 
   quando tem 4-4-3-3- na corda A é a passagem (e todo 
meu amor) e tem a outra parte tambem que é a parte  
(mas quando eu te perto te olhar não sei se vou poder  
falar e  
 depois desse riff sempre vem esse de baixo 
G------------------------------------------------
D--------------------------------------------------
A------------8-8-8-8--6-6-6------------------------
E-1-x-1-1-x--------------------4-4-4-4-------------- 
estou     | quando tem esses oitos seis e quatros é 
guardando |um arranjo que tem. 
pra lhe dar 
 
 
refão 
G|------------------------------------------------- 
D|--------------------------------------------------
A|---1-x-1-1-x----1-x-1-1-x------------------------
E|---------------------------1-x-1-1-x---1-x--1-1-x-
 
 
 
G------------------------------------------------ 
D-------------------------------------------- 
A--6--x-6-6-x-6------------------------------- 
E--------------------------------------------- 
solo 
G-------------------------------------------------- 
D-------------------------------------------------- 
A-1-x-1-1-x--1-x--1-1-x----------------------------
E--------------------------1-x-1-1-x---1-x-1--1-x---
 
G-------------------------------------------------- 
D-------------------------------------------------- 
A--6-x-6-6-x-6----------4-x-4-3-x-3---------------- 
E----------------4-x-4--------------6-x-6-6-x-6---- 
 
G----------------------------------------------- 
D------------------------------------------------ 
A--6-x-6-6-x-6----------4-x-3-x-3----1-x-1-1-x---- 
E---------------4-x-4----------------------------1-X-1-1-X 
 
A1-x-1-1-x--1-x-1-1-x---1-x-1-1-x-------------------
E------------------------------------1-x-1-1-x--1-x-1-1-x 
 
é isso escutem a musica e aprendão sou baixista da banda 
bad boys porto vilma .m.s. qual quer duvida meu e-mail 
é hector.nirvana@bol.com.br 


_______________________________________________________
Contribuição: hector de nara rigon(hector.nirvana@bol.com.br)
exibições 8.396

0 comentários

mostrar mais comentários

Conseguiu tocar?

0 tocaram 0 ainda não

Grave um vídeo tocando A Volta e mande pra gente!

00:00 / 00:00
outros vídeos desta música
repetir qualidade Automático
Outros vídeos desta música
00:00 / 00:00
Automático
OK