Cifra Club

Pr'esse Vício

RPM

Cifra: Principal (violão e guitarra)
Selo Cifra Club: esta cifra foi revisada para atender aos critérios oficiais da nossa Equipe de Qualidade.
tom: Db
RPM - Pr'esse Vício
Tablatura para Baixo

G|-2--
D|-0--
A|-----
E|-----

G|----2----2h3-3----3-----3h4-4---4---4h5----5----5---2-
D|-0----0----------0----0-----------0---0-------0----0--
A|------------------------------------------------------        (4 Vezes)
E|------------------------------------------------------

G|----7----7-7------8-----5----
D|---------------------------8-
A|-5----5--------6-----6-------          (3 Vezes)
E|-----------------------------

G|----7----7-7-------8/10-10-10\
D|------------------------------
A|-5----5-------6---------------
E|------------------------------

G|---------
D|-0 (64x)
A|---------
E|---------
00:00 / 00:00
Outros vídeos desta música
Repetir
Outros vídeos desta música
1.135 exibições
    • ½ Tom
    • A
    • Bb
    • B
    • C
    • Db
    • D
    • Eb
    • E
    • F
    • F#
    • G
    • Ab
  • Adicionar à lista

Afinação da cifra

Afinador online

    0 comentários

    Ver todos os comentários

    Entre para o Cifra Club PRO

    Tenha acesso a benefícios exclusivos no App e no Site

    • Chega de anúncios

    • Mais recursos no app do Afinador

    • Atendimento Prioritário

    • Aumente seu limite de lista

    • Ajude a produzir mais conteúdo

    00:00 / 00:00

    Cifra Club Pro

    Aproveite o Cifra Club com benefícios exclusivos e sem anúncios
    Cifra Club Pro
    Aproveite o Cifra Club com benefícios exclusivos e sem anúncios
    OK