Cifra Club

Sob a Luz do Sol

RPM

Cifra: Mtv-ao-vivo-2002 (violão e guitarra)
Selo Cifra Club: esta cifra foi revisada para atender aos critérios oficiais da nossa Equipe de Qualidade.
tom: G
        H  H  H  H     H  H   H
E|------7-----------------------------------|
B|---------7------------------7-------------|
G|------------7------------5----------------|     
D|---------------7------5-------------------|    
A|------------------------------------------|
E|------------------------------------------|

E|---------X-X-X-X-X------------------------|
B|---------X-X-X-X-X------------------------|
G|---------X-X-X-X-X------------------------|  (6x)
D|---------X-X-X-X-X------------------------|
A|---------X-X-X-X-X------------------------|
E|---------X-X-X-X-X------------------------|

Em               Bm          C                   D
Quero das horas escuras cumplicidade em qualquer loucura
Em                 Bm            C                      D
Quero as noites em claro a  eletricidade, um luar de mil watts
C              Bm            C               Bm
Já não morro mais de medo que o tempo escorra pelos dedos
C             Bm           C          Em
Já não sinto quase nada na madrugada fria

E|---------X-X-X-X-X------------------------|
B|---------X-X-X-X-X------------------------|
G|---------X-X-X-X-X------------------------|     (5x)
D|---------X-X-X-X-X------------------------|
A|---------X-X-X-X-X------------------------|
E|---------X-X-X-X-X------------------------|

Em                 Bm                     C              D
Quero a sujeira das ruas nas veias do asfalto quero me injetar
Em                 Bm               C               D
Quero o perigo correndo comigo sem nunca poder me alcançar
C              Bm           C                 Bm
Já não morro mais de medo que o tempo escorra pelos dedos
C             Bm        C            (E F# E/G#)
Já não vejo quase nada sob a luz do sol

(solo)

E|-----------------------------------------|
B|-----12~----------11---------------------|
G|---------------------11--13-13~----------|
D|-----------------------------------------|
A|-----------------------------------------|
E|-----------------------------------------|

E|-----------------------------------------|
B|-----12--12s14-12-11-11-12-11------------|
G|-----------------------------11-13-13----|
D|-----------------------------------------|
A|-----------------------------------------|
E|-----------------------------------------|

E|-----------------------------------------|
B|-----12~----------11---------------------|
G|---------------------11--13-13~----------|
D|-----------------------------------------|
A|-----------------------------------------|
E|-----------------------------------------|

E|------------------------------------------------12---------|
B|------12-12s14-12-11----12-11------------------------------|
G|---------------------11-------11-13-13-11h13-13b-----------|
D|-----------------------------------------------------------|
A|-----------------------------------------------------------|
E|-----------------------------------------------------------|

E|---------X-X-X-X-X------------------------|
B|---------X-X-X-X-X------------------------|
G|---------X-X-X-X-X------------------------|     (5x)
D|---------X-X-X-X-X------------------------|
A|---------X-X-X-X-X------------------------|
E|---------X-X-X-X-X------------------------|

Em               Bm               C                D
Quero a cidade vazia o clarão do dia me ofusca a visão
Em             Bm               C                  D
Minha cabeça lateja meu corpo cansado se espalha no chão
C                Bm              C                 Bm
Já não morro mais de medo que o tempo escorra pelos dedos
C             Bm         C          Em
Já não vejo quase nada sob a luz do sol

E|---------X-X-X-X-X------------------------|
B|---------X-X-X-X-X------------------------|
G|---------X-X-X-X-X------------------------|    
D|---------X-X-X-X-X------------------------|
A|---------X-X-X-X-X------------------------|
E|---------X-X-X-X-X------------------------|
Outros vídeos desta música
    426 exibições
      • ½ Tom
      • A
      • Bb
      • B
      • C
      • Db
      • D
      • Eb
      • E
      • F
      • F#
      • G
      • Ab
    • Adicionar à lista

    Afinação da cifra

    Afinador online

      0 comentários

      Ver todos os comentários

      Entre para o Cifra Club PRO

      Tenha acesso a benefícios exclusivos no App e no Site

      • Chega de anúncios

      • Badges exclusivas

      • Mais recursos no app do Afinador

      • Atendimento Prioritário

      • Aumente seu limite de lista

      • Ajude a produzir mais conteúdo

      Cifra Club Pro

      Aproveite o Cifra Club com benefícios exclusivos e sem anúncios
      Cifra Club Pro
      Aproveite o Cifra Club com benefícios exclusivos e sem anúncios
      OK