Cifra Club

Minha Fonte

Salz Band

Cifra: Principal
exibições 43.874
Tom: E
Intro 2x: C#m               G#m             A             B

       E|---------5--4-----------5---4-----------5---4-------------------|
       B|-5---5----------4---4-----------2---2-----------4---4---4-------|
       G|---6---6----------4---4-----------2---2-----------4---4---4-----|
       D|----------------------------------------------------------------|
       A|-4--------4-4-------------------0---------0---0-2---------------|
       E|----------------4---------4---4---------------------------------|

Verso 1:
E
Não olhou para os meus erros
A9
Não olhou minhas transgressões
C#m          B4            A9
Mas me amou como sou, Jesus

Verso 2:
E
Não olhou pro meu passado
A9
Nem se afastou quando o chamei
C#m             B4              A9
Mas Teu amor me encontrou, Jesus


      C#m    B4
Me amou primeiro
         A9            G#m7
Em Teus braços me envolveu
       F#m7         G#m7          A9
Se entregou por inteiro em meu favor

Refrão:
E        B/D#              A9
Minha fonte, meu lugar seguro
E            B/D#       A9
Meu socorro, esperança És

Solo:
E|-------------------------------------|
B|-------------------------------------|
G|--/9~~---/8~~--/6~~------------------|     (2x)
D|-------------------------------------|
A|-------------------------------------|
E|-------------------------------------|

E|-------------------------------------|
B|--17--12-----------------------------|
G|----------9-9/8--8/16--9/14~~--------|
D|-------------------------------------|
A|-------------------------------------|
E|-------------------------------------|

E|-------------------------------------|
B|-8-9-9/16--9-8-----------------------|
G|-------------------------------------|    (4x)
D|-------------------------------------|
A|-------------------------------------|
E|-------------------------------------|

Ai entra o solo:

E|-------------------------------------------------|
B|------------10-10-10-10-10--9-9-9-9-9------------|
G|-/9-9-9-9-9----------------------------8-8-8-8-8-|
D|-------------------------------------------------|
A|-------------------------------------------------|
E|-------------------------------------------------|

E|-------------------------------------------|
B|-10-10-10-10-10--9-9-9-9-9-----------------|
G|----------------------------6-6-6-6-6------|
D|-------------------------------------------|
A|-------------------------------------------|
E|-------------------------------------------|

E|-------------------------------------------|
B|-10-10-10-9-9-9-9/12-12-12--10-10-10--9-9-9|
G|-------------------------------------------|
D|-------------------------------------------|
A|-------------------------------------------|
E|-------------------------------------------|

E|---------------17-17-17-17-16-16-16-16----------------|
B|-9/17-17-17-17-------------------------16-16-16-16----|
G|------------------------------------------------------|
D|------------------------------------------------------|
A|------------------------------------------------------|
E|------------------------------------------------------|

E|-17-17-17-17--16-16-16-16------------------|
B|---------------------------14-14-14-14-----|
G|-------------------------------------------|
D|-------------------------------------------|
A|-------------------------------------------|
E|-------------------------------------------|

E|-17-17-17-17--16-16-16-16/19-19-19-19-19-19|
B|-------------------------------------------|
G|-------------------------------------------|
D|-------------------------------------------|
A|-------------------------------------------|
E|-------------------------------------------|

Refrão:
E        B                A
Minha fonte, meu lugar seguro
E            B         A
Meu socorro, esperança És

 Final: C#m B A    (2x)
E|----------------------------
B|----------------------------
G|----9~~-11-8~~--6~~---------
D|----------------------------
A|----------------------------
E|----------------------------
Acordes para:
    Colaboração e revisão:

    0 comentários

      mostrar mais comentários

      Conseguiu tocar?

      12tocaram0ainda não

      Grave um vídeo tocando Minha Fonte e mande pra gente!

      00:00 / 00:00
      outros vídeos desta música
      repetirqualidadeautomática
      Outro vídeos desta música
        00:00 / 00:00
        automática
        OK