Cifra Club

Bullet With Butterfly Wings

The Smashing Pumpkins

Cifra: Principal (violão e guitarra)
Tom: C#
 
Tune: (Eb,Ab,Db,Gb,Bb,Eb)
Intro
(the world is a vampire... )
Segue intro até o refrão

|---------------------------------------------------------
|---------------------------------------------------------
|---------------------------------------------------------
|---------------------------------------------------------
|-----------------6--6---8--------------------------------
|-6--6--4--6--2--------------------------------------------



"The world is a vampire..."

*1

G1 and G2 mid/light distortion

|---------------------------------------------------------
|---------------------------------------------------------
|-4-4-4-4-(4)----------2-2-2-2----------------------------
|-4-4-4-4--5--2--2-2-2-2-2-2-2----------------------------
|-2-2-0-2--5--2--2-2-2-0-0-0-0----------------------------
|----------3--0--0-0-0------------------------------------
                              ^repeat

*2
                          <   <
|---------------------------------------------------------
|---------------------------------------------------------
|-4-4-4-------------------2---2---------------------------
|-4-4-4-2-2-2-2-2-5-5-5-5-2-2-2-2-------------------------
|-2-2-2-2-2-2-2-2-5-5-5-5-0-0-0-0-------------------------
|-------0-0-0-0-0-3-3-3-3---------------------------------
                                 ^repeat
                          ^ that little "
Chorus ends with:

|---------------------------------------------------------
|---------------------------------------------------------
|-------------2-------------------------------------------
|-2---5---4---2-------------------------------------------
|-2---5---4---0-------------------------------------------
|-0---3---2-----------------------------------------------
                ^repeated several times after second chorus
back to *1...

End riff
(similar to *3)

|---------------------------------------------------------
|---------3-----------------------------------------------
|-4-------2-X-2-------------------------------------------
|-4-X-5---0-X-2-------------------------------------------
|-2-X-5---0-X-0-------------------------------------------
|-----3---------------------------------------------------
              add rhythm there as appropriate...

you know how I hate to tab out all those
rhythm strumms (ie. the end riff)...sorry.
exibições 45.410
Acordes para:
    Composição: Billy Corgan Colaboração e revisão:
    • Thiago Souza

    0 comentários

    mostrar mais comentários

    Conseguiu tocar?

    2 tocaram 0 ainda não

    Grave um vídeo tocando Bullet With Butterfly Wings e mande pra gente!

    00:00 / 00:00
    outros vídeos desta música
    repetir qualidade Automático
    Outros vídeos desta música
    00:00 / 00:00
    Automático
    OK