Cifra Club

Crown Of Thorns

Social Distortion

Cifra: Principal (violão e guitarra)
Selo Cifra Club: esta cifra foi revisada para atender aos critérios oficiais da nossa Equipe de Qualidade.
tom: D
(intro 1)

(guitar 1 - both times)  (guitar 2 - 2nd time)
E|- |--------------------------------------------|
B|- |--------------------------------------------|
G|- |--------------------------------------------|
D|- |---------8-8--8--8-8-----------6-6--6--6-6--|
A|- |---------8-8--8--8-8-----------6-6--6--6-6--|
E|- |-1-4-6-4-6-6--6--6-6-4-6-8-6-4-4-4--4--4-4--| this twice

(intro 2)
(guitar 1)
E|- |--------------------------------------------|
B|- |--------------------------------------------|
G|- |--------------------------------------------|
D|- |---------8-8--8--8-8-----------6-6--6--6-6--|
A|- |---------8-8--8--8-8-----------6-6--6--6-6--|
E|- |-1-4-6-4-6-6--6--6-6-4-6-8-6-4-4-4--4--4-4--| 2X

(guitar 2) (short solo riff)
E|- |-9-9-9-9-8-8-8-8-9-9-8-9-9-8-6-6H8-8-8-6-4-4|
B|- |--------------------------------------------|
G|- |--------------------------------------------|
D|- |--------------------------------------------|
A|- |--------------------------------------------|
E|- |--------------------------------------------| 2X

(verse 1)
(guitar 1 & 2)
E|- |--------------------------------------------|
B|- |--------------------------------------------|
G|- |--------------------------------------------|
D|- |---------8-8--8--8-8-----------6-6--6--6-6--|
A|- |---------8-8--8--8-8-----------6-6--6--6-6--|
E|- |-1-4-6-4-6-6--6--6-6-4-6-8-6-4-4-4--4--4-4--| 2x

(pre-chorus)
(guitar 1)
E|- |--------------------------------------------------------|
B|- |--------------------------------------------------------|
G|- |--------------------------------------------------------|
D|- |---------8--8-8--8--8--8-8-8-8-8-3--3-3--3--3--3-3-3-3-3|
A|- |---------8--8-8--8--8--8-8-8-8-8-3--3-3--3--3--3-3-3-3-3|
E|- |-1-4-6-4-6--6-6--6--6--6-6-6-6-6-1--1-1--1--1--1-1-1-1-1|

E|- |--------------------------------------------|
B|- |--------------------------------------------|
G|- |--------------------------------------------|
D|- |-8--8-8--8--8--8-8-8-8-8-6-6-6-6-6-6-6-6-6--|
A|- |-8--8-8--8--8--8-8-8-8-8-6-6-6-6-6-6-6-6-6--|
E|- |-6--6-6--6--6--6-6-6-6-6-4-4-4-4-4-4-4-4-4--|

(guitar 2)
E|- |-------------------------------------------------------|
B|- |-------------------------------------------------------|
G|- |-------------------------------------------------------|
D|- |---------8--8-8--5-6-6-6-6-5-3--3--3-3--3--3--3-3-3-3-3|
A|- |---------8--8-8-----------------3--3-3--3--3--3-3-3-3-3|
E|- |-1-4-6-4-6--6-6-----------------1--1-1--1--1--1-1-1-1-1|

E|- |-------------------------------------------|
B|- |-------------------------------------------|
G|- |-------------------------------------------|
D|- |-8--8-8--5-6-6-6-6-5-3--6-6-6-6-6-6-6-6-6--|
A|- |-8--8-8-----------------6-6-6-6-6-6-6-6-6--|
E|- |-6--6-6-----------------4-4-4-4-4-4-4-4-4--|

(chorus)
(guitar 1)
E|- |--------------------------------------------------------|
B|- |--------------------------------------------------------|
G|- |--------------------------------------------------------|
D|- |---------8--8-8--8--8--8-8-8-8-8-6--6-6--6--6--6-6-6-6-6|
A|- |---------8--8-8--8--8--8-8-8-8-8-6--6-6--6--6--6-6-6-6-6|
E|- |-1-4-6-4-6--6-6--6--6--6-6-6-6-6-4--4-4--4--4--4-4-4-4-4|

E|- |-------------------------------------------|
B|- |-------------------------------------------|
G|- |-----------------------------------------3~|
D|- |-8--8-8--8--8--8-8-8-8-8-3-3-3-3-3-3-3-3-3~|
A|- |-8--8-8--8--8--8-8-8-8-8-3-3-3-3-3-3-3-3-1~|
E|- |-6--6-6--6--6--6-6-6-6-6-1-1-1-1-1-1-1-1---|

(guitar 2)
E|- |--------------------------------------------------------|
B|- |--------------------------------------------------------|
G|- |--------------------------------------------------------|
D|- |---------8--8-8--5-6-6-6-6-5-3-6--6-6--6--6-6-6-6-6-6-6-|
A|- |---------8--8-8----------------6--6-6--6--6-6-6-6-6-6-6-|
E|- |-1-4-6-4-6--6-6----------------4--4-4--4--4-4-4-4-4-4-4-|

E|- |----------------------------------------|
B|- |----------------------------------------|
G|- |--------------------------------------3~|
D|- |8--8-8--5-6-6-6-6-5-3-3-3-3-3-3-3-3-3-3~|
A|- |8--8-8----------------3-3-3-3-3-3-3-3-1~|
E|- |6--6-6----------------1-1-1-1-1-1-1-1---|

(solo Break)
(guitar 1)
E|- |--------------------------------------------|
B|- |--------------------------------------------|
G|- |--------------------------------------------|
D|- |---------8-8--8--8-8-----------6-6--6--6-6--|
A|- |---------8-8--8--8-8-----------6-6--6--6-6--|
E|- |-1-4-6-4-6-6--6--6-6-4-6-8-6-4-4-4--4--4-4--| 2X

(guitar 2)
E|- |-------------------------------------------------------------|
B|- |-------------------------------------------------------------|
G|- |-6-6-653-5-6-6-653-5-6-8-8-653-5-6-5----1-3-5--3--3--31--1-1~|
D|- |--------------------------------------3----------------3-----|
A|- |-------------------------------------------------------------|
E|- |-------------------------------------------------------------|

(verse 1)
(guitar 1 & 2)
E|- |--------------------------------------------|
B|- |--------------------------------------------|
G|- |--------------------------------------------|
D|- |---------8-8--8--8-8-----------6-6--6--6-6--|
A|- |---------8-8--8--8-8-----------6-6--6--6-6--|
E|- |-1-4-6-4-6-6--6--6-6-4-6-8-6-4-4-4--4--4-4--| 2x

(pre-Chorus)
(guitar 1)
E|- |--------------------------------------------------------|
B|- |--------------------------------------------------------|
G|- |--------------------------------------------------------|
D|- |---------8--8-8--8--8--8-8-8-8-8-3--3-3--3--3--3-3-3-3-3|
A|- |---------8--8-8--8--8--8-8-8-8-8-3--3-3--3--3--3-3-3-3-3|
E|- |-1-4-6-4-6--6-6--6--6--6-6-6-6-6-1--1-1--1--1--1-1-1-1-1|

E|- |-------------------------------------------------------|
B|- |-------------------------------------------------------|
G|- |-------------------------------------------------------|
D|- |-8--8-8--8--8--8-8-8-8-8-6-6-6-6-6-6-6-6-6-6-6-6-6-6-6-|
A|- |-8--8-8--8--8--8-8-8-8-8-6-6-6-6-6-6-6-6-6-6-6-6-6-6-6-|
E|- |-6--6-6--6--6--6-6-6-6-6-4-4-4-4-4-4-4-4-4-4-4-4-4-4-4-|

(guitar 2)
E|- |-------------------------------------------------------|
B|- |-------------------------------------------------------|
G|- |-------------------------------------------------------|
D|- |---------8--8-8--5-6-6-6-6-5-3--3--3-3--3--3--3-3-3-3-3|
A|- |---------8--8-8-----------------3--3-3--3--3--3-3-3-3-3|
E|- |-1-4-6-4-6--6-6-----------------1--1-1--1--1--1-1-1-1-1|

E|- |--------------------------------------------------------|
B|- |--------------------------------------------------------|
G|- |--------------------------------------------------------|
D|- |-8--8-8--5-6-6-6-6-5-3--6-6-6-6-6-6-6-6-6-6-6-6-6-6-6-6-|
A|- |-8--8-8-----------------6-6-6-6-6-6-6-6-6-6-6-6-6-6-6-6-|
E|- |-6--6-6-----------------4-4-4-4-4-4-4-4-4-4-4-4-4-4-4-4-|

(chorus)
(guitar 1)
E|- |--------------------------------------------------------|
B|- |--------------------------------------------------------|
G|- |--------------------------------------------------------|
D|- |---------8--8-8--8--8--8-8-8-8-8-6--6-6--6--6--6-6-6-6-6|
A|- |---------8--8-8--8--8--8-8-8-8-8-6--6-6--6--6--6-6-6-6-6|
E|- |-1-4-6-4-6--6-6--6--6--6-6-6-6-6-4--4-4--4--4--4-4-4-4-4|

E|- |---------------------------------------------------------|
B|- |---------------------------------------------------------|
G|- |---------------------------------------------------------|
D|- |-8--8-8--8--8--8-8-8-8-8-3-3-3-3-3-3-3-3-3-3-3-3-3-3-3-3-|
A|- |-8--8-8--8--8--8-8-8-8-8-3-3-3-3-3-3-3-3-3-3-3-3-3-3-3-3-|
E|- |-6--6-6--6--6--6-6-6-6-6-1-1-1-1-1-1-1-1-1-1-1-1-1-1-1-1-|

(guitar 2)
E|- |--------------------------------------------------------|
B|- |--------------------------------------------------------|
G|- |--------------------------------------------------------|
D|- |---------8--8-8--5-6-6-6-6-5-3-6--6-6--6--6-6-6-6-6-6-6-|
A|- |---------8--8-8----------------6--6-6--6--6-6-6-6-6-6-6-|
E|- |-1-4-6-4-6--6-6----------------4--4-4--4--4-4-4-4-4-4-4-|

E|- |------------------------------------------------------|
B|- |------------------------------------------------------|
G|- |------------------------------------------------------|
D|- |8--8-8--5-6-6-6-6-5-3-3-3-3-3-3-3-3-3-3-3-3-3-3-3-3-3-|
A|- |8--8-8----------------3-3-3-3-3-3-3-3-3-3-3-3-3-3-3-3-|
E|- |6--6-6----------------1-1-1-1-1-1-1-1-1-1-1-1-1-1-1-1-|

(interlude)
(guitar 1 & 2)
E|- |---------------------------------|
B|- |---------------------------------|
G|- |-4-4-4-4---------6-6-6-6-6-6-6-6-|
D|- |-4-4-4-4-4-4-4-4-6-6-6-6-6-6-6-6-| (play each note twice as 8th notes)
A|- |-2-2-2-2-4-4-4-4-4-4-4-4-4-4-4-4-|
E|- |---------2-2-2-2-----------------|

E|- |---------------------------------|
B|- |---------------------------------|
G|- |-4-4-4-4-------------------------|
D|- |-4-4-4-4-4-4-4-4-6-6-6-6-6-6-6-6-|
A|- |-2-2-2-2-4-4-4-4-6-6-6-6-6-6-6-6-| (whole interlude played twice)
E|- |---------2-2-2-2-4-4-4-4-4-4-4-4-|

(guitar Solo)
(guitar 1)
E|- |------------------------------------------------|
B|- |------------------------------------------------|
G|- |------------------------------------------------|
D|- |------------------------------------------------|
A|- |------------------------------------------------|
E|- |------------------------------------------------|

(guitar 2)
E|- |-9-9-9-9-8-8-8-8-9-9-8-9-9-8-6-6H8-8-8-6-4-4|
B|- |--------------------------------------------|
G|- |--------------------------------------------|
D|- |--------------------------------------------|
A|- |--------------------------------------------|
E|- |--------------------------------------------| 2X

E|- |-----------------------------------------|
B|- |-4-6-4-6--6--6-6-6-6-4-2-2H4-4-4-2-1-----|
G|- |-------------------------------------3-1-|
D|- |-----------------------------------------|
A|- |-----------------------------------------|
E|- |-----------------------------------------| 2X

E|- |--------------------------------------------------|
B|- |--------------------------------------------------|
G|- |-3-1-3-3--3--3-3--1-3-5-3-1--1--1-1---------------|
D|- |------------------------------------1-3-1-1H3-----|
A|- |--------------------------------------------------|
E|- |--------------------------------------------------|

E|- |------------------------------|
B|- |------------------------------|
G|- |------------------------------|
D|- |--3--3--3-3-3-1---11111111\\1-|
A|- |----------------4-------------|
E|- |------------------------------|

(chorus)
(guitar 1)
E|- |----------------------------------------------------|
B|- |----------------------------------------------------|
G|- |----------------------------------------------------|
D|- |-8--8-8--8-8--8--8-8-8-8-8-6--6-6--6-6--6--6-6-6-6-6|
A|- |-8--8-8--8-8--8--8-8-8-8-8-6--6-6--6-6--6--6-6-6-6-6|
E|- |-6--6-6--6-6--6--6-6-6-6-6-4--4-4--4-4--4--4-4-4-4-4| 4X

(last time) (guitar 2 plays this after the slowdown)
E|- |--------------2---------------------------------|
B|- |--------------2---------------------------------|
G|- |-----1--------3---------------------------------|
D|- |-1-3---3~~~~~-3---------------------------------|
A|- |--------------2---------------------------------|
E|- |------------------------------------------------|
Outros vídeos desta música
    596 exibições
      • ½ Tom
      • A
      • Bb
      • B
      • C
      • Db
      • D
      • Eb
      • E
      • F
      • F#
      • G
      • Ab
    • Adicionar à lista

    Afinação da cifra

    Afinador online

      0 comentários

      Ver todos os comentários

      Entre para o Cifra Club PRO

      Tenha acesso a benefícios exclusivos no App e no Site

      • Chega de anúncios

      • Badges exclusivas

      • Mais recursos no app do Afinador

      • Atendimento Prioritário

      • Aumente seu limite de lista

      • Ajude a produzir mais conteúdo

      Cifra Club Pro

      Aproveite o Cifra Club com benefícios exclusivos e sem anúncios
      Cifra Club Pro
      Aproveite o Cifra Club com benefícios exclusivos e sem anúncios
      OK