Cifra Club

Dont Drag Me Down

Social Distortion

Cifra: Principal (violão e guitarra)
Selo Cifra Club: esta cifra foi revisada para atender aos critérios oficiais da nossa Equipe de Qualidade.
tom: Bm
[Chords]
   Bm        G        D        A
E|--2--| |--3--|  |--2--|  |-----|
B|--3--| |--3--|  |--3--|  |--2--|
G|--4--| |--0--|  |--2--|  |--2--|
D|--4--| |--0--|  |--0--|  |--2--|
A|--2--| |--2--|  |-----|  |-----|
E|--2--| |--3--|  |-----|  |-----|

[Intro]
E|-2---------------0--2-2-0-0-2-0-------------------------------------| x2
B|---3----------3-----------------------------------------------------|
G|-----4--2--4--------------------------------------------------------|
D|--------------------------------------------------------------------|
A|--------------------------------------------------------------------|
E|--------------------------------------------------------------------|

[Verse]
Bm           G               D            A
Children are taught to hate, parents just couldn't wait
Bm                G              D               A
Some are rich and some are poor, others will just suffer more
Bm            G                D                A
Have you ever been ashamed and felt society try to keep you down?
Bm          G                     D             A
I begin to watch things change and see them turn around

[Chorus]
      Bm  G          D            A 
Turn around, they'll try to keep you down
      Bm  G   D    A
Turn around,
      B   G   D    A 
Turn around
              Bm   G   D    A
Don't drag me down

[Verse]
Bm G D A
Ignorance like a gun in hand, reach out to the promised land
Your history books are full of lies, media-blitz gonna dry your eyes
Have you ever been afraid, and felt society try to keep you down?
I begin to watch things change see them turn around

[Chorus]
      Bm  G          D            A 
Turn around, they'll try to keep you down
      Bm  G   D    A
Turn around,
      B   G   D    A 
Turn around
              Bm   G   D    A
Don't drag me down

[Verse]
Bm G D A

Ignorance like a gun in hand reach out to the promised land
Your history books are full of lies, media -blitz gonna dry your eyes
You're eighteen wanna be a man Your granddaddy's in the Ku Klux Klan
Taking two steps forward and four steps back
Gonna go to the White House and paint it black
Outros vídeos desta música
    46 exibições
      • ½ Tom
      • Am
      • Bbm
      • Bm
      • Cm
      • C#m
      • Dm
      • Ebm
      • Em
      • Fm
      • F#m
      • Gm
      • G#m
    • Adicionar à lista

    Afinação da cifra

    Afinador online

      0 comentários

      Ver todos os comentários

      Entre para o Cifra Club PRO

      Tenha acesso a benefícios exclusivos no App e no Site

      • Chega de anúncios

      • Mais recursos no app do Afinador

      • Atendimento Prioritário

      • Aumente seu limite de lista

      • Ajude a produzir mais conteúdo

      Cifra Club Pro

      Aproveite o Cifra Club com benefícios exclusivos e sem anúncios
      Cifra Club Pro
      Aproveite o Cifra Club com benefícios exclusivos e sem anúncios
      OK