Cifra Club

Hour Of Darkness

Social Distortion

Cifra: Principal (violão e guitarra)
Selo Cifra Club: esta cifra foi revisada para atender aos critérios oficiais da nossa Equipe de Qualidade.
tom: Cm
[Intro]
E|------------------------------|------------------------------|
B|------------------------------|------------------------------|
G|-8-8---8---8----5-5---5---5---|-8-8---8---8----5-5---5---5---|
D|-8-8-8-8-8-8-8--5-5-5-5-5-5-5-|-8-8-8-8-8-8-8--5-5-5-5-5-5-5-|
A|-6-6-8-6-8-6-8--3-3-5-3-5-3-5-|-6-6-8-6-8-6-8--3-3-5-3-5-3-5-|
E|-----6---6---6------3---3---3-|-----6---6---6------3---3---3-|

E|------------------------------|------------------------------|
B|------------------------------|------------------------------|
G|-8-8---8---8----5-5---5---5---|-8-8---8---8----5-5---5---5---|
D|-8-8-8-8-8-8-8--5-5-5-5-5-5-5-|-8-8-8-8-8-8-8--5-5-5-5-5-5-5-|
A|-6-6-8-6-8-6-8--3-3-5-3-5-3-5-|-6-6-8-6-8-6-8--3-3-5-3-5-3-5-|
E|-----6---6---6------3---3---3-|-----6---6---6------3---3---3-|

E|------------------------------|------------------------------|
B|------------------------------|------------------------------|
G|-8-8--8b--10--7--5-5-5h--7-8--|-8-8--8b--10--7--5-5-5h--7-8--|
D|------------------------------|------------------------------|
A|------------------------------|------------------------------|
E|------------------------------|------------------------------|

[Verse]
("An Hour Of Angry An Hour Of Love, This Hour Of Confusion As I Look Above")
E|------------------------------|------------------------------|
B|------------------------------|------------------------------|
G|-8-8---8---8----5-5---5---5---|-8-8---8---8----5-5---5---5---|
D|-8-8-8-8-8-8-8--5-5-5-5-5-5-5-|-8-8-8-8-8-8-8--5-5-5-5-5-5-5-|
A|-6-6-8-6-8-6-8--3-3-5-3-5-3-5-|-6-6-8-6-8-6-8--3-3-5-3-5-3-5-|
E|-----6---6---6------3---3---3-|-----6---6---6------3---3---3-|

("Death And Life As I've Never Seen Before, One More Trip Like That And I'm In The Mental Ward")
E|------------------------------|------------------------------|
B|------------------------------|------------------------------|
G|-8-8---8---8----5-5---5---5---|-8-8---8---8----5-5---5---5---|
D|-8-8-8-8-8-8-8--5-5-5-5-5-5-5-|-8-8-8-8-8-8-8--5-5-5-5-5-5-5-|
A|-6-6-8-6-8-6-8--3-3-5-3-5-3-5-|-6-6-8-6-8-6-8--3-3-5-3-5-3-5-|
E|-----6---6---6------3---3---3-|-----6---6---6------3---3---3-|

[Chorus]
("These Sights And Sounds Are All Around Me, They Grasp And They Don't Let Go")
E|----------------------------------------------------------------------------|
B|----------------------------------------------------------------------------|
G|------------------6-6-6-6-6-6-6-6-------------------8-7--8-7--8-7--8-7--8-7-|
D|-8-8-8-8-8-8-8-8--6-6-6-6-6-6-6-6--6-6-6-6-6-6-6-6--8-7--8-7--8-7--8-7--8-7-|
A|-8-8-8-8-8-8-8-8--4-4-4-4-4-4-4-4--6-6-6-6-6-6-6-6--6-5--6-5--6-5--6-5--6-5-|
E|-6-6-6-6-6-6-6-6-------------------4-4-4-4-4-4-4-4--------------------------|

("The Sirens, The Cries, The Laughter And The Sighs, I Hear The Hour, My Hour Of Darkness")
E|----------------------------------------------------------------------------|
B|----------------------------------------------------------------------------|
G|------------------6-6-6-6-6-6-6-6-------------------8-7--8-7--8-7--8-7--8-7-|
D|-8-8-8-8-8-8-8-8--6-6-6-6-6-6-6-6--6-6-6-6-6-6-6-6--8-7--8-7--8-7--8-7--8-7-|
A|-8-8-8-8-8-8-8-8--4-4-4-4-4-4-4-4--6-6-6-6-6-6-6-6--6-5--6-5--6-5--6-5--6-5-|
E|-6-6-6-6-6-6-6-6-------------------4-4-4-4-4-4-4-4--------------------------|

[Verse]
E|------------------------------|------------------------------|
B|------------------------------|------------------------------|
G|-8-8--8b--10--7--5-5-5h--7-8--|-8-8--8b--10--7--5-5-5h--7-8--|
D|------------------------------|------------------------------|
A|------------------------------|------------------------------|
E|------------------------------|------------------------------|

("An Hour Of Darkness, An Hour That's Passed, This Life I Feel Just Won't Be Surpassed")
E|------------------------------|------------------------------|
B|------------------------------|------------------------------|
G|-8-8---8---8----5-5---5---5---|-8-8---8---8----5-5---5---5---|
D|-8-8-8-8-8-8-8--5-5-5-5-5-5-5-|-8-8-8-8-8-8-8--5-5-5-5-5-5-5-|
A|-6-6-8-6-8-6-8--3-3-5-3-5-3-5-|-6-6-8-6-8-6-8--3-3-5-3-5-3-5-|
E|-----6---6---6------3---3---3-|-----6---6---6------3---3---3-|

("Death And Life As I've Never Seen Before, One More Trip Like That Will Put Me In The Morgue")
E|------------------------------|------------------------------|
B|------------------------------|------------------------------|
G|-8-8---8---8----5-5---5---5---|-8-8---8---8----5-5---5---5---|
D|-8-8-8-8-8-8-8--5-5-5-5-5-5-5-|-8-8-8-8-8-8-8--5-5-5-5-5-5-5-|
A|-6-6-8-6-8-6-8--3-3-5-3-5-3-5-|-6-6-8-6-8-6-8--3-3-5-3-5-3-5-|
E|-----6---6---6------3---3---3-|-----6---6---6------3---3---3-|

[Chorus]
("Sights And Sounds Are All Around Me, They Grasp And They Don't Let Go")
E|----------------------------------------------------------------------------|
B|----------------------------------------------------------------------------|
G|------------------6-6-6-6-6-6-6-6-------------------8-7--8-7--8-7--8-7--8-7-|
D|-8-8-8-8-8-8-8-8--6-6-6-6-6-6-6-6--6-6-6-6-6-6-6-6--8-7--8-7--8-7--8-7--8-7-|
A|-8-8-8-8-8-8-8-8--4-4-4-4-4-4-4-4--6-6-6-6-6-6-6-6--6-5--6-5--6-5--6-5--6-5-|
E|-6-6-6-6-6-6-6-6-------------------4-4-4-4-4-4-4-4--------------------------|

("The Sirens, The Cries, The Laughter And The Sighs, I Hear The Hour, My Hour Of Darkness")
E|----------------------------------------------------------------------------|
B|----------------------------------------------------------------------------|
G|------------------6-6-6-6-6-6-6-6-------------------8-7--8-7--8-7--8-7--8-7-|
D|-8-8-8-8-8-8-8-8--6-6-6-6-6-6-6-6--6-6-6-6-6-6-6-6--8-7--8-7--8-7--8-7--8-7-|
A|-8-8-8-8-8-8-8-8--4-4-4-4-4-4-4-4--6-6-6-6-6-6-6-6--6-5--6-5--6-5--6-5--6-5-|
E|-6-6-6-6-6-6-6-6-------------------4-4-4-4-4-4-4-4--------------------------|

[Outro]
E|----------------------------------------------------------------------------|
B|----------------------------------------------------------------------------|
G|------------------6-6-6-6-6-6-6-6-------------------8-7--8-7--8-7--8-7--8-7-|
D|-8-8-8-8-8-8-8-8--6-6-6-6-6-6-6-6--6-6-6-6-6-6-6-6--8-7--8-7--8-7--8-7--8-7-|
A|-8-8-8-8-8-8-8-8--4-4-4-4-4-4-4-4--6-6-6-6-6-6-6-6--6-5--6-5--6-5--6-5--6-5-|
E|-6-6-6-6-6-6-6-6-------------------4-4-4-4-4-4-4-4--------------------------|

E|----------------------------------------------------------------------------|
B|----------------------------------------------------------------------------|
G|------------------6-6-6-6-6-6-6-6-------------------8-7--8-7--8-7--8-7--8-7-|
D|-8-8-8-8-8-8-8-8--6-6-6-6-6-6-6-6--6-6-6-6-6-6-6-6--8-7--8-7--8-7--8-7--8-7-|
A|-8-8-8-8-8-8-8-8--4-4-4-4-4-4-4-4--6-6-6-6-6-6-6-6--6-5--6-5--6-5--6-5--6-5-|
E|-6-6-6-6-6-6-6-6-------------------4-4-4-4-4-4-4-4--------------------------|

E|----------------------------------------------------------------------------|
B|----------------------------------------------------------------------------|
G|------------------6-6-6-6-6-6-6-6-------------------8-7--8-7--8-7--8-7--8-7-|
D|-8-8-8-8-8-8-8-8--6-6-6-6-6-6-6-6--6-6-6-6-6-6-6-6--8-7--8-7--8-7--8-7--8-7-|
A|-8-8-8-8-8-8-8-8--4-4-4-4-4-4-4-4--6-6-6-6-6-6-6-6--6-5--6-5--6-5--6-5--6-5-|
E|-6-6-6-6-6-6-6-6-------------------4-4-4-4-4-4-4-4--------------------------|

E|------------------------------------------------------------------------------|
B|------------------------------------------------------------------------------|
G|------------------6-6-6-6-6-6-6-6-------------------8-7--8-7--8-7--8-7--8-8-8-|
D|-8-8-8-8-8-8-8-8--6-6-6-6-6-6-6-6--6-6-6-6-6-6-6-6--8-7--8-7--8-7--8-7--8-8-8-|
A|-8-8-8-8-8-8-8-8--4-4-4-4-4-4-4-4--6-6-6-6-6-6-6-6--6-5--6-5--6-5--6-5--6-6-6-|
E|-6-6-6-6-6-6-6-6-------------------4-4-4-4-4-4-4-4----------------------------|
Outros vídeos desta música
    4 exibições
      • ½ Tom
      • Am
      • Bbm
      • Bm
      • Cm
      • C#m
      • Dm
      • Ebm
      • Em
      • Fm
      • F#m
      • Gm
      • G#m
    • Adicionar à lista

    Afinação da cifra

    Afinador online

      0 comentários

      Ver todos os comentários

      Entre para o Cifra Club PRO

      Tenha acesso a benefícios exclusivos no App e no Site

      • Chega de anúncios

      • Badges exclusivas

      • Mais recursos no app do Afinador

      • Atendimento Prioritário

      • Aumente seu limite de lista

      • Ajude a produzir mais conteúdo

      Cifra Club Pro

      Aproveite o Cifra Club com benefícios exclusivos e sem anúncios
      Cifra Club Pro
      Aproveite o Cifra Club com benefícios exclusivos e sem anúncios
      OK