Cifra Club

Under My Thumb

Social Distortion

Cifra: Versão 4 (violão e guitarra)
Selo Cifra Club: esta cifra foi revisada para atender aos critérios oficiais da nossa Equipe de Qualidade.
tom: Bm
E|E|-------------------------------------------------------------------------------||
                    under my thumb - social distortion
E|E|-------------------------------------------------------------------------------||

tune down  1/2 step

  intro                                    verse
E|---------------------------------------|------------|---|
B|---------------------------------------|------------|---|
G|---------7--------------3--------------|---------7--|---|
D|-4---2---7-----0---2/4------0---2/4--2-|--4--2---7--|---|
A|-4---2---5-----------------------------|--4--2---5--|---|
E|-2---0---------------------------------|--2--0------|---|

  chorus
E|---------------------------------]|
B|---------------------------------]|
G|-------7--4----------7-----------]|
D|-7-----7--4---4--2---7--7--------]|
A|-7-----5--2---4--2---5--7--------]|
E|-5------------2--0------5--------]|

  solo
E|---------------------------------------------------------------------------|
B|---------------------------------------------------------------------------|
G|-------------------------------------7---9--9---11--11---11--9---9--11--11-|
D|-------7--9--9/11--9---9--9---7--7---7---9--9---11--11---11--9---9--11--11-|
A|--/9-----------------------------------------------------------------------|
E|---------------------------------------------------------------------------|
Outros vídeos desta música
    2 exibições
      • ½ Tom
      • Am
      • Bbm
      • Bm
      • Cm
      • C#m
      • Dm
      • Ebm
      • Em
      • Fm
      • F#m
      • Gm
      • G#m
    • Adicionar à lista

    Afinação da cifra

    Afinador online

      0 comentários

      Ver todos os comentários

      Entre para o Cifra Club PRO

      Tenha acesso a benefícios exclusivos no App e no Site

      • Chega de anúncios

      • Badges exclusivas

      • Mais recursos no app do Afinador

      • Atendimento Prioritário

      • Aumente seu limite de lista

      • Ajude a produzir mais conteúdo

      Cifra Club Pro

      Aproveite o Cifra Club com benefícios exclusivos e sem anúncios
      Cifra Club Pro
      Aproveite o Cifra Club com benefícios exclusivos e sem anúncios
      OK