Cifra Club

Love Story

Taylor Swift

Cifra: Principal (violão e guitarra)
Selo Cifra Club: esta cifra foi revisada para atender aos critérios oficiais da nossa Equipe de Qualidade.
tom: D (forma dos acordes no tom de C) Capotraste na 2ª casa
[Intro] C  G6(11)  Am7  F7M(9)/C

[Tab - Intro]

Parte 1 de 4
   C
E|-----0---0------------0---0--------------------------|
B|-------3---3---3--------3---3---3--------------------|
G|---2---------2------2---------2----------------------|
D|-4----------------4----------------------------------|
A|-----------------------------------------------------|
E|-----------------------------------------------------|

Parte 2 de 4
   G6(11)
E|-----0---0------------0---0--------------------------|
B|-------3---3---3--------3---3---3--------------------|
G|---2---------2------2---------2----------------------|
D|-2----------------2----------------------------------|
A|-----------------------------------------------------|
E|-----------------------------------------------------|

Parte 3 de 4
   Am7
E|-----0---0------------0---0--------------------------|
B|-------3---3---3--------3---3---3--------------------|
G|---4---------4------4---------4----------------------|
D|-4----------------4----------------------------------|
A|-----------------------------------------------------|
E|-----------------------------------------------------|

Parte 4 de 4
   F7M(9)/C
E|-----0---0------------0---0--------------------------|
B|-------3---3---3--------3---3---3--------------------|
G|---2---------2------2---------2----------------------|
D|-5----------------5----------------------------------|
A|-----------------------------------------------------|
E|-----------------------------------------------------|

[Primeira Parte] 

[Tab - Primeira parte]

Parte 1 de 8
   C
E|-----0---0------------0---0--------------------------|
B|-------3---3---3--------3---3---3--------------------|
G|---2---------2------2---------2----------------------|
D|-4----------------4----------------------------------|
A|-----------------------------------------------------|
E|-----------------------------------------------------|

Parte 2 de 8
   F7M(9)/C
E|-----0---0------------0---0--------------------------|
B|-------3---3---3--------3---3---3--------------------|
G|---2---------2------2---------2----------------------|
D|-5----------------5----------------------------------|
A|-----------------------------------------------------|
E|-----------------------------------------------------|

Parte 3 de 8
   Am7
E|-----0---0------------0---0--------------------------|
B|-------3---3---3--------3---3---3--------------------|
G|---4---------4------4---------4----------------------|
D|-4----------------4----------------------------------|
A|-----------------------------------------------------|
E|-----------------------------------------------------|

Parte 4 de 8
   F7M(9)/C
E|-----0---0------------0---0--------------------------|
B|-------3---3| ---3--------3---3---3-------------------|
G|---2---------2------2---------2----------------------|
D|-5----------------5----------------------------------|
A|-----------------------------------------------------|
E|-----------------------------------------------------|

Parte 5 de 8
   C
E|-----0---0------------0---0--------------------------|
B|-------3---3---3--------3---3---3--------------------|
G|---2---------2------2---------2----------------------|
D|-4----------------4----------------------------------|
A|-----------------------------------------------------|
E|-----------------------------------------------------|

Parte 6 de 8
   F7M(9)/C
E|-----0---0------------0---0--------------------------|
B|-------3---3---3--------3---3---3--------------------|
G|---2---------2------2---------2----------------------|
D|-5----------------5----------------------------------|
A|-----------------------------------------------------|
E|-----------------------------------------------------|

Parte 7 de 8
   Am7
E|-----0---0------------0---0--------------------------|
B|-------3---3---3--------3---3---3--------------------|
G|---4---------4------4---------4----------------------|
D|-4----------------4----------------------------------|
A|-----------------------------------------------------|
E|-----------------------------------------------------|

Parte 8 de 8
   G6(11)
E|-----0---0------------0---0--------------------------|
B|-------3---3---3--------3---3---3--------------------|
G|---2---------2------2---------2----------------------|
D|-2----------------2----------------------------------|
A|-----------------------------------------------------|
E|-----------------------------------------------------|

 C
We were both young 

when I first saw you
    F7M(9)/C
I close my eyes 

and the flashback starts
              Am7                
Im standing there 
                 F7M(9)/C
on a balcony of summer air

 C
See the lights, 

See the party the ball gowns
 F7M(9)/C
See you make your way 
                              Am7
through the crowd and say hello
           G6(11)
Little did I know

[Pré-Refrão] 

      F7M(9)/C 
That you were Romeo 
            G6(11)
you were throwing pebbles
        Am7
And my daddy said 
                C
Stay away from Juliet
             F7M(9)/C 
And I was crying on the staircase
 G6(11)                   Am7 
Begging you please don't go,     
F7M(9)/C     G6(11)
         And I said

[Refrão] 

 C
Romeo take me 

Somewhere we can be alone
G6(11)
I'll be waiting 

All theres left to do is run
 Am7
You'll be the prince and 

I'll be the princess
F7M(9)/C           G6(11)           C
It's a love story baby just say yes

[Segunda Parte] 

   C
So I sneak out 

To the garden to see you
 F7M(9)/C
We keep quite 

Cause we're dead if they knew
              Am7
So close your eyes
                        G6(11)
Escape this town for a little while

[Pré-Refrão] 

       F7M(9)/C
Cause you were Romeo, 
          G6(11)
I was a scarlet letter
        Am7 
And my daddy said 
                C
Stay away from Juliet
             F7M(9)/C
But you were everything to me
           G6(11)                   Am7
And I was begging you please don't go 
F7M(9)/C     G6(11)
         And I said 

[Refrão] 

 C
Romeo take me 

Somewhere we can be alone
G6(11)
I'll be waiting 

All theres left to do is run
 Am7
You'll be the prince and 

I'll be the princess
F7M(9)/C           G6(11)
It's a love story baby just say yes

  C
Romeo save me, 

They're trying to tell me how to feel
G6(11)
       This love is difficult

But it's real
 Am7
Don't be afraid

We'll make it out of this mess
F7M(9)/C           G6(11)
It's a love story baby just say yes

[Solo] C  G6(11)  Am7  F7M(9)/C  G6(11)

[Tab - Solo]

Parte 1 de 3
E|-----------------------------------------------------|
B|-----8---7---5-------5---7---5---------5---7---5-----|
G|-7-7---7---7---7-7-7---7---7---------7---7---7-------|
D|-----------------------------------------------------|
A|-----------------------------------------------------|
E|-----------------------------------------------------|

Parte 2 de 3
E|-----------------------------------------------------|
B|---5-------5---8---7---5-----------------------------|
G|-7---7-6-7---7---7---7---7-7-7-6-7-6-4---------------|
D|---------------------------------------7-5-4-5-------|
A|-----------------------------------------------------|
E|-----------------------------------------------------|

Parte 3 de 3
E|-----------------------------------------------------|
B|-5---------------------------------------------------|
G|---7-7-6-6-4-4-----------------4---------------------|
D|---------------7-7-5-5-4-4-5-7---4-------------------|
A|-----------------------------------------------------|
E|-----------------------------------------------------|

[Terceira parte] 

                Am7     F7M(9)/C              
I got tired of waiting,  
              C 
Wondering if you were ever 
         G6(11)
Coming around
                 Am7   F7M(9)/C
My faith in you was fading
        C                         
When I met you on the outskirts 
    G6(11)
Of town and I said

[Refrão final] 

 C
Romeo save me 

I've been feeling so alone
G6(11)
I keep waiting 

For you but you never come
     Am7
Is this in my head, I don't know 

What to think
     F7M(9)/C               G6(11)
He knelt to the ground and pulled out 

A ring and said

 D
Marry me Juliet never have to be alone
A4
I love you and 

That's all I really know
   Bm
I talked to your dad 

Go pick out a white dress
G                  A4           D
It's a love story baby just say   yes
        A4   
Oh, oh, oh
        Bm
Oh, oh, oh
 G                                   D
We were both young when I first saw you
00:00 / 00:00
Outros vídeos desta música
Repetir
Outros vídeos desta música
726.060 exibições
  • Simplificar cifra
    • ½ Tom
    • A
    • Bb
    • B
    • C
    • Db
    • D
    • Eb
    • E
    • F
    • F#
    • G
    • Ab
  • Adicionar à lista

Afinação da cifra

Afinador online

    0 comentários

    Ver todos os comentários

    Entre para o Cifra Club PRO

    Tenha acesso a benefícios exclusivos no App e no Site

    • Chega de anúncios

    • Mais recursos no app do Afinador

    • Atendimento Prioritário

    • Aumente seu limite de lista

    • Ajude a produzir mais conteúdo

    00:00 / 00:00
    Capítulos
    • Apresentação
    • Tocando a Música
    • Dicas Iniciais
    • Acordes da Música
    • Ensinando o Ritmo da Música
    • Ensinando a Intro
    • Ensinando a Primeira Parte
    • Dicas do Pré-Refrão
    • Ensinando o Pré-Refrão
    • Ensinando o Refrão
    • Ensinando o Solo
    • Dicas da Terceira Parte
    • Acordes do Final da Música
    • Ensinando o Refrão Final
    • Encerramento

    Cifra Club Pro

    Aproveite o Cifra Club com benefícios exclusivos e sem anúncios
    Cifra Club Pro
    Aproveite o Cifra Club com benefícios exclusivos e sem anúncios
    OK