Cifra Club

Out Of The Woods

Taylor Swift

Cifra: Principal (violão e guitarra)
Selo Cifra Club: esta cifra foi revisada para atender aos critérios oficiais da nossa Equipe de Qualidade.
tom: C
[Primeira Parte]

 C
Looking at it now
                G
It all seems so   simple
         Am
We were lying on your couch
     F
I remember
            C
You took a polaroid of us
         G
Then discovered 
                 Am
The rest of the world 

Was black and white
                  F
But we were in screaming color

And I remember thinking

[Refrão]

Parte 1 De 5

   p.m.. .   . .   . . . .   . . .
E|---------0-----0---------0----------------|
B|---------1-----1---------1----------------|
G|---------0-----0---------0----------------|
D|-2-2-2-2-2-2-2-2-2-2-2-2-2-2-2-2----------|
A|-3-3-3-3---3-3---3-3-3-3---3-3-3----------|
E|------------------------------------------|

Parte 2 De 5

   p.m.. .   . .   . . . .   . . .
E|---------3-----3---------3----------------|
B|---------3-----3---------3----------------|
G|---------0-----0---------0----------------|
D|-0-0-0-0-0-0-0-0-0-0-0-0-0-0-0-0----------|
A|-2-2-2-2---2-2---2-2-2-2---2-2-2----------|
E|-3-3-3-3---3-3---3-3-3-3---3-3-3----------|

Parte 3 De 5

   p.m.. .   . .   . . . .   . . .
E|---------0-----0---------0----------------|
B|---------1-----1---------1----------------|
G|---------2-----2---------2----------------|
D|-2-2-2-2-2-2-2-2-2-2-2-2-2-2-2-2----------|
A|-0-0-0-0---0-0---0-0-0-0---0-0-0----------|
E|------------------------------------------|

Parte 4 De 5

   p.m.. .   . .   . . . .   . . .
E|---------1-----1---------1----------------|
B|---------1-----1---------1----------------|
G|---------2-----2---------2----------------|
D|-3-3-3-3-3-3-3-3-3-3-3-3-3-3-3-3----------|
A|-3-3-3-3---3-3---3-3-3-3---3-3-3----------|
E|-1-1-1-1---1-1---1-1-1-1---1-1-1----------|

Parte 5 De 5

   p.m.. .   . . . .   . . . .   . . . .
E|------------------------------------------|
B|------------------------------------------|
G|-0-0-0-0---0-0-0-0---0-0-0-0---0-0-0-0----|
D|-2-2-2-2---2-2-2-2---2-2-2-2---2-2-2-2----|
A|-3-3-3-3---3-3-3-3---3-3-3-3---3-3-3-3----|
E|------------------------------------------|

C
  Are we out of the woods yet

Are we out of the woods yet

Are we out of the woods yet

Are we out of the woods

G
  Are we in the clear yet

Are we in the clear yet

Are we in the clear yet

In the clear yet? Good

Am
   Are we out of the woods yet

Are we out of the woods yet

Are we out of the woods yet

Are we out of the woods

F
  Are we in the clear yet

Are we in the clear yet

Are we in the clear yet

In the clear yet good

C
  Are we out of the woods

[Primeira Parte]

Parte 1 De 4

   C
E|---0--------------------------------------|
B|-----1------------------------------------|
G|-------0----------------------------------|
D|---------2--------------------------------|
A|-3-------3--------------------------------|
E|------------------------------------------|

Parte 2 De 4

   G
E|---3--------------------------------------|
B|-----3---3--------------------------------|
G|-----4------------------------------------|
D|---5---5----------------------------------|
A|---------5--------------------------------|
E|-3----------------------------------------|

Parte 3 De 4

   Am
E|---0--------------------------------------|
B|-----1------------------------------------|
G|-------2----------------------------------|
D|---------2--------------------------------|
A|-0-------0--------------------------------|
E|------------------------------------------|

Parte 4 De 4

   F
E|---1--------------------------------------|
B|-----2-------1----------------------------|
G|-------3-------2--------------------------|
D|---------3-------3------------------------|
A|-------------------3----------------------|
E|-1-----------------1----------------------|

 C
Looking at it now
        G
Last December 
          Am
We were built to fall apart
                  F
Then fall back together 

               C
Your necklace hanging from my neck
      
The night we couldn't quite forget
           G
When we decided 
             Am
To move the furniture so we could dance

Baby, like we stood a chance
          F
Two paper airplanes

Flyin', flyin', flyin'

And I remember thinking

[Refrão]

C
  Are we out of the woods yet

Are we out of the woods yet

Are we out of the woods yet

Are we out of the woods

G
  Are we in the clear yet

Are we in the clear yet

Are we in the clear yet

In the clear yet? Good

Am
   Are we out of the woods yet

Are we out of the woods yet

Are we out of the woods yet

Are we out of the woods

F
  Are we in the clear yet

Are we in the clear yet

Are we in the clear yet

In the clear yet good
C
  Are we out of the woods

[Segunda Parte]

C
  Remember when you hit the brakes

Too soon
                                 G
Twenty stitches in the hospital room

When you started cryin'

Baby, I did, too

But when the sun came up, I was lookin' 
    Am
At you

Remember when we couldn't take the heat

I walked out and said, I'm settin' you 
  F
Free

But the monsters turned out to be just 

Trees

And when the sun came up, you were 
            C
Lookin' at me
                     G
You were lookin' at me
                     Am
You were lookin' at me
     F
I remember, oh, I remember

[Refrão]

C
  Are we out of the woods yet

Are we out of the woods yet

Are we out of the woods yet

Are we out of the woods

G
  Are we in the clear yet

Are we in the clear yet

Are we in the clear yet

In the clear yet? Good

Am
   Are we out of the woods yet

Are we out of the woods yet

Are we out of the woods yet

Are we out of the woods

F
  Are we in the clear yet

Are we in the clear yet

Are we in the clear yet

In the clear yet good

C
  Are we out of the woods yet

Are we out of the woods yet

Are we out of the woods yet

Are we out of the woods

G
  Are we in the clear yet

Are we in the clear yet

Are we in the clear yet

In the clear yet? Good

Am
   Are we out of the woods yet

Are we out of the woods yet

Are we out of the woods yet

Are we out of the woods

F
  Are we in the clear yet

Are we in the clear yet

Are we in the clear yet
                  C
In the clear yet good
Outros vídeos desta música
    39.294 exibições
    • Simplificar cifra
      • ½ Tom
      • A
      • Bb
      • B
      • C
      • Db
      • D
      • Eb
      • E
      • F
      • F#
      • G
      • Ab
    • Adicionar à lista

    Afinação da cifra

    Afinador online

      0 comentários

      Ver todos os comentários

      Entre para o Cifra Club PRO

      Tenha acesso a benefícios exclusivos no App e no Site

      • Chega de anúncios

      • Mais recursos no app do Afinador

      • Atendimento Prioritário

      • Aumente seu limite de lista

      • Ajude a produzir mais conteúdo

      Capítulos
      • Tocando a música
      • Dicas Iniciais / Equipamentos
      • Acordes da música
      • Tocando a Primeira Parte
      • Ritmo da música
      • Primeira Parte - Parte 1 de 4
      • Primeira Parte - Parte 2 de 4
      • Primeira Parte - Parte 3 de 4
      • Primeira Parte - Parte 4 de 4
      • Tocando o Refrão
      • Refrão - Parte 1 de 5
      • Refrão - Parte 2 de 5
      • Refrão - Parte 3 de 5
      • Refrão - Parte 4 de 5
      • Refrão - Parte 5 de 5
      • Tocando a Segunda Parte
      • Ritmo da Segunda Parte
      • Encerramento
      • Ficha Técnica

      Cifra Club Pro

      Aproveite o Cifra Club com benefícios exclusivos e sem anúncios
      Cifra Club Pro
      Aproveite o Cifra Club com benefícios exclusivos e sem anúncios
      OK