Cifra Club

Game of Thrones Theme

Temas de TV

Cifra: Fingerstyle (violão e guitarra)
Selo Cifra Club: esta cifra foi revisada para atender aos critérios oficiais da nossa Equipe de Qualidade.
tom: G
[Tab - Introdução]

   Am
E|-0---------0---------0---------0----------|
B|-1-----1h3-------1h3-------1h3-------1h3--|
G|-2-2-2-------2-2-------2-2-------2-2------|
D|-2----------------------------------------|
A|-0----------------------------------------|
E|------------------------------------------|

   A
E|-0---------0---------0---------0----------|
B|-2-----1h3-------1h3-------1h3-------1h3--|
G|-2-2-2-------2-2-------2-2-------2-2------|
D|-2----------------------------------------|
A|-0----------------------------------------|
E|------------------------------------------|

[Tab - Primeira Parte]

   Am
E|-0-----------------------0----------------|
B|-1-------------------1h3-------1-----1h3--|
G|-2---2-----2---2-------------2-----2------|
D|-2-2---2-2---2---2-2-------2-----2--------|
A|-0---------0---------0---------0----------|
E|------------------------------------------|

   Em
E|-0----------------------------------------|
B|-0---------0---------0---------0----------|
G|-0-----0h2-------0h2-------0h2-------0h2--|
D|-2-2-2-------2-2-------2-2-------2-2------|
A|-2----------------------------------------|
E|-2---------2---------2---------2----------|

   G
E|------------------------------------------|
B|-3-------------------1p0-1/3-----------1p0|
G|-0---0-----0---0-----------------0--------|
D|-0-0---0-0---0---0-0---------0-0---0-0----|
A|------------------------------------------|
E|-5---------5---------5-----------5--------|

   Dm
E|------------------------------------------|
B|-3----------------------------------------|
G|-2-------0-2-------0-2-------0-2-------0--|
D|---0-0h3-----0-0h3-----0-0h3-----0-0h3----|
A|------------------------------------------|
E|-0---------0---------0---------0----------|

[Tab - Variação da Primeira Parte]

   Am
E|-0------------------------0---------------|
B|-1--------------------1h3-------------1h3-|
G|-2---2------2---2---------------2---------|
D|-2-------2----------2---------2-----2-----|
A|-0-0---0------0---0---0---0-0---0-0-------|
E|------------x-------------------x---------|

   Em
E|------------------------------------------|
B|-0---------0---------0---------0-------0--|
G|-0-----0h2-0-----0h2-0-----0h2-0-----0----|
D|-2---2-----2---2-----2---2-----2---2------|
A|-2---------x-------------------x----------|
E|-2-2-------x-2-------2-2-------x-2--------|

   G
E|------------------------------------------|
B|-3--------------------1p0-3-----------1p0-|
G|-0---0------0---0---------------0---------|
D|-0-------0----------0---------0-----0-----|
A|------------------------------------------|
E|-5-5---5----x-5---5---5---5-5---x-5-------|

   G
E|------------------------------------------|
B|-3--------------------0---1-----0---------|
G|-0---0------0---0-----0---0-----0---0-----|
D|-0-------0----------0---------0---------0-|
A|------------------------------------------|
E|-5-5---5----x-5---5---5-5---5---x-5---5---|

   Dm
E|------------------------------------------|
B|-3---------3---------3---------3----------|
G|-2-------0-2-------0-2-------0-2-------0--|
D|-0-2-2h3---0-2-2h3---0-2-2h3---0-2-2h3----|
A|------------------------------------------|
E|-0-0-0-----0-0-0-----0-0-0-----0----------|

[Tab - Segunda Parte]

   F13
E|-5---5-5-5-5-5---5-5-5-5------------------|
B|-3---3-3-3-3-3---3-3-3-3------------------|
G|-2---2-2-2-2-2---2-2-2-2------------------|
D|-3---3-3-3-3-3---3-3-3-3------------------|
A|-3---3---3---3---3---3--------------------|
E|-3-----------3---3-3-3-3------------------|

   C
E|-3---3-3-3-3-3---3-3-3-3------------------|
B|-1---1-1-1-1-1---1-1-1-1------------------|
G|-0---0-0-0-0-0---0-0-0-0------------------|
D|-2---2-2-2-2-2---2-2-2-2------------------|
A|-3---3---3---3---3---3--------------------|
E|------------------------------------------|

   Dm
E|-1---1-1-1-1-1---1-1-1-1------------------|
B|-3---3-3-3-3-3---3-3-3-3------------------|
G|-2---2-2-2-2-2---2-2-2-2------------------|
D|-0---0-0-0-0-0---0-0-0-0------------------|
A|-0-----------0----------------------------|
E|-0-----------0----------------------------|

   Am                  G
E|-0---0-0-0-0-0---0------------------------|
B|-1---1-1-1-1-1---1---3--------------------|
G|-2---2-2-2-2-2---2---0--------------------|
D|-2---2-2-2-2-2---2---0--------------------|
A|-0---0---0---0---0------------------------|
E|---------------------5--------------------|

   F  
E|------------------------------------------|
B|-1---1-1-1-1-1---1-1-1-1------------------|
G|-2---2-2-2-2-2---2-2-2-2------------------|
D|-3---3-3-3-3-3---3-3-3-3------------------|
A|------------------------------------------|
E|-3-----------3---3-3-3-3------------------|

   C           G
E|------------------------------------------|
B|-1---1-1-1-1-3---3-3-3-3------------------|
G|-0---0-0-0-0-0---0-0-0-0------------------|
D|-2---2-2-2-2-0---0-0-0-0------------------|
A|-3---3---3--------------------------------|
E|-------------3----------------------------|

   C           Em
E|------------------------------------------|
B|-1---1-1-1-1-0---0-0-0-0------------------|
G|-0---0-0-0-0-0---0-0-0-0------------------|
D|-2---2-2-2-2-2---2-2-2-2------------------|
A|-3---3---3---2----------------------------|
E|-------------2----------------------------|

   Am
E|------------------------------------------|
B|-1---------1---------1---------1----------|
G|-2-2-2---0-2-2-2---0-2-------0-2-------0--|
D|-2-2-2h3---2-2-2h3---2-2-2h3---2-2-2h3----|
A|-0-0-0-----0-0-0-----0-0-0-----0-0-0------|
E|------------------------------------------|
Outros vídeos desta música
    8.386 exibições
      • ½ Tom
      • A
      • Bb
      • B
      • C
      • Db
      • D
      • Eb
      • E
      • F
      • F#
      • G
      • Ab
    • Adicionar à lista

    Afinação da cifra

    Afinador online

      0 comentários

      Ver todos os comentários

      Entre para o Cifra Club PRO

      Tenha acesso a benefícios exclusivos no App e no Site

      • Chega de anúncios

      • Badges exclusivas

      • Mais recursos no app do Afinador

      • Atendimento Prioritário

      • Aumente seu limite de lista

      • Ajude a produzir mais conteúdo

      Capítulos
      • Apresentação / Equipamentos
      • Tocando a Música
      • Dicas da Música
      • Afinação
      • Acordes Introdução e Primeira Parte
      • Tocando Introdução - Primeira Parte
      • Ensinando Introdução
      • Ensinando Primeira Parte - Primeira Seção
      • Tocando Primeira Parte - Segunda Seção
      • Ensinando Primeira Parte - Segunda Seção
      • Acordes Segunda Parte
      • Tocando Segunda Parte
      • Ensinando Segunda Parte
      • Encerramento

      Cifra Club Pro

      Aproveite o Cifra Club com benefícios exclusivos e sem anúncios
      Cifra Club Pro
      Aproveite o Cifra Club com benefícios exclusivos e sem anúncios
      OK