Cifra Club

Brilha Brilha Estrelinha

Músicas Infantis

Cifra: Principal (violão e guitarra)
Selo Cifra Club: esta cifra foi revisada para atender aos critérios oficiais da nossa Equipe de Qualidade.
tom: G
E|----3-3-5-5--3-3-1-1-0-0-------------------|
B|-1-1--------------------3-3-1--------------|
G|-------------------------------------------|
D|-------------------------------------------|
A|-------------------------------------------|
E|-------------------------------------------|

E|-3-3-1-1-0-0-----3-3-1-1-0-0---------------|
B|-------------3-3-------------3-------------|
G|-------------------------------------------|
D|-------------------------------------------|
A|-------------------------------------------|
E|-------------------------------------------|

E|----3-3-5-5-3-3-1-1-0-0--------------------|
B|-1-1--------------------3-3-1--------------|
G|-------------------------------------------|
D|-------------------------------------------|
A|-------------------------------------------|
E|-------------------------------------------|

  C       G     F     C
Brilha, brilha, estrelinha
  F    C     G      C
Quero ver você brilhar

 G       F       C     G
Faz de conta que é só minha
 Em     F   C       G
Só pra ti irei brilhar

  C       Em    F     C
Brilha, brilha, estrelinha
  Dm      C      G     C
Brilha, brilha, lá no céu



Outros vídeos desta música
615.182 exibições
  • Simplificar cifra
    • ½ Tom
    • A
    • Bb
    • B
    • C
    • Db
    • D
    • Eb
    • E
    • F
    • F#
    • G
    • Ab
  • Adicionar à lista

Afinação da cifra

Afinador online

    0 comentários

    Ver todos os comentários

    Entre para o Cifra Club PRO

    Tenha acesso a benefícios exclusivos no App e no Site

    • Chega de anúncios

    • Mais recursos no app do Afinador

    • Atendimento Prioritário

    • Aumente seu limite de lista

    • Ajude a produzir mais conteúdo

    Cifra Club Pro

    Aproveite o Cifra Club com benefícios exclusivos e sem anúncios
    Cifra Club Pro
    Aproveite o Cifra Club com benefícios exclusivos e sem anúncios
    OK