Cifra Club

Brilha Brilha Estrelinha

Músicas Infantis

Cifra: Principal (violão e guitarra)
exibições 191.734
Tom: G
E|----3-3-5-5--3-3-1-1-0-0-------------------|
B|-1-1--------------------3-3-1--------------|
G|-------------------------------------------|
D|-------------------------------------------|
A|-------------------------------------------|
E|-------------------------------------------|

E|-3-3-1-1-0-0---3-3-1-1-0-0-----------------|
B|-------------2-------------2---------------|
G|-------------------------------------------|
D|-------------------------------------------|
A|-------------------------------------------|
E|-------------------------------------------|

E|----3-3-5-5-3-3-1-1-0-0--------------------|
B|-0-0-----------------2-2-0-----------------|
G|-------------------------------------------|
D|-------------------------------------------|
A|-------------------------------------------|
E|-------------------------------------------|

  C        G        F     C
Brilha, |brilha, |estre|linha
  F      C      G      C
Quero |ver vo|cê bri|lhar

  G       F      C         G
|Faz de |conta |que é só |minha
  Em       F    C       G
Só pra |ti i|rei bri|lhar

  C        Em       F     C
Brilha, |brilha, |estre|linha
  Dm      C       G      C
Vai bri|lhando |sem pa|rar
Acordes para:
    Colaboração e revisão:

    0 comentários

      mostrar mais comentários

      Conseguiu tocar?

      37tocaram8ainda não

      Grave um vídeo tocando Brilha Brilha Estrelinha e mande pra gente!

      00:00 / 00:00
      outros vídeos desta música
      repetirqualidadeAutomático
      Outro vídeos desta música
        00:00 / 00:00
        OK