Cifra Club

O Sapo Não Lava o Pé

Músicas Infantis

Cifra: Principal (violão e guitarra)
tom: A
E|---------------------------|
B|---------------------------|
G|-0-5-5-0-2-0---------------|
D|-------------2-------------|
A|---------------------------|
E|---------------------------|

O sapo não lava o pé

E|---------------------------|
B|---------------------------|
G|-0-5-5-0-2-0---------------|
D|-------------3-------------|
A|---------------------------|
E|---------------------------|

Não lava porque não quer

E|---------------------------|
B|---------------------------|
G|-0-0-4-4-0-2-0-4-4---------|
D|---------------------------|
A|---------------------------|
E|---------------------------|

Ele mora lá na lagoa

E|---------------------------|
B|---------------------------|
G|-0-2-0-4-0-2-4-5-----------|
D|---------------------------|
A|---------------------------|
E|---------------------------|

Não lava o pé porque não quer
00:00 / 00:00
Outros vídeos desta música
Repetir
Outros vídeos desta música
Composição de Infantil
Colaboração e revisão:
  • Thiny2411
  • Vini M.
  • luiz claudio
261.227 exibições
    • ½ Tom
    • A
    • Bb
    • B
    • C
    • Db
    • D
    • Eb
    • E
    • F
    • F#
    • G
    • Ab
  • Adicionar à lista

    0 comentários

    Ver todos os comentários

    Entre para oCifra Club PRO

    Tenha acesso a benefícios exclusivos no App e no Site

    • Chega de anúncios

    • Prioridade de compra em lançamentos

    • Mais recursos no app do Afinador

    • Atendimento Prioritário

    • Descontos nos produtos Cifra Club

    • Ajude a produzir mais conteúdo

    00:00 / 00:00

    Cifra Club Pro

    Aproveite o Cifra Club com benefícios exclusivos e sem anúncios
    Cifra Club Pro
    Aproveite o Cifra Club com benefícios exclusivos e sem anúncios
    OK