Cifra Club

Vestido de Seda

Teodoro e Sampaio

Cifra: Principal (violão e guitarra)
tom: G
[Intro]
                        G               G7                 C
E|-----7--10---9--10/12-10----9-10-7----------7-9/12--10-10-8--8-10-12----|
B|---8-------------------------------8-7~---7-----------------------------|
G|-7-------------------------------------9--------------------------------|
D|------------------------------------------------------------------------|
A|------------------------------------------------------------------------|
E|------------------------------------------------------------------------|

    C             G              D         G
E|-8-8h10-8-8-7--7-7-7h8-7-7-5--5-5-5h7-5-3--5-3-5-3~---------------------|
B|------------------------------------------------------------------------|
G|------------------------------------------------------------------------|
D|------------------------------------------------------------------------|
A|------------------------------------------------------------------------|
E|------------------------------------------------------------------------|

[Primeira Parte]

 G                             C        D            G
Meu bem eu queria que você voltasse ao menos pra buscar
                                            D
Alguns objetos que na despedida você não levou

[Pré-Refrão]

                         C              G
Um batom usado caído no canto da penteadeira
                            D
Um vestido velho cheio de poeira
            C          D         G
Jogado no quarto com marcas de amor

[Refrão]

             D7            C                 G
Vestido de seda o seu manequim também te deixou
                               D
Ai no cantinho não tem mais valor
             C         D         G
Se não tem aquela que tanto te usou
               D                   C                 G
Eu também não passo de um trapo humano sem minha querida
                             D
Usado e jogado num canto da vida
               C        D           G
Não sei o que faço sem meu grande amor

( G  G7  C  G  D  G )

[Segunda Parte]

                               C           D        G
Eu já nem acendo a luz do meu quarto quando vou deitar
                                                    D
Porque no escuro não vejo no espelho meus olhos chorando

[Pré-Refrão]

                                     C               G
Não vou na cozinha pra não ver dois copos vazios na mesa
                               D
Fazendo lembrar com tanta tristeza
            C        D        G
Da última noite que nós nos amamos

[Refrão]

             D7            C                 G
Vestido de seda o seu manequim também te deixou
                               D
Ai no cantinho não tem mais valor
             C         D         G
Se não tem aquela que tanto te usou
               D                   C                 G
Eu também não passo de um trapo humano sem minha querida
                             D
Usado e jogado num canto da vida
               C        D           G
Não sei o que faço sem meu grande amor

(  G  )
00:00 / 00:00
Outros vídeos desta música
Repetir
Outros vídeos desta música
Composição de Alcino Alves / Teodoro
1.209.895 exibições
    • ½ Tom
    • A
    • Bb
    • B
    • C
    • Db
    • D
    • Eb
    • E
    • F
    • F#
    • G
    • Ab
  • Adicionar à lista

    0 comentários

    Ver todos os comentários

    Conseguiu tocar?

    89 Tocaram 18 Ainda não

    Grave um vídeo tocando Vestido de Seda e nos envie!

    Entre para oCifra Club PRO

    Tenha acesso a benefícios exclusivos no App e no Site

    • Chega de anúncios

    • Prioridade de compra em lançamentos

    • Mais recursos no app do Afinador

    • Atendimento Prioritário

    • Descontos nos produtos Cifra Club

    • Ajude a produzir mais conteúdo

    00:00 / 00:00

    Cifra Club Pro

    Aproveite o Cifra Club com benefícios exclusivos e sem anúncios
    Cifra Club Pro
    Aproveite o Cifra Club com benefícios exclusivos e sem anúncios
    OK