Cifra Club

Vestido de Seda

Teodoro e Sampaio

Cifra: Principal
exibições 648.612
Tom: G
Intro:

                        G               G7                 C
E|-----7--10---9--10/12-10----9-10-9----------7-9/12--10-10-8--8-10-12----|
B|---8-------------------------------8-6~--8------------------------------|
G|-7----------------------------------------------------------------------|
D|------------------------------------------------------------------------|
A|------------------------------------------------------------------------|
E|------------------------------------------------------------------------|
    C             G              D         G
E|-8-8h10-8-8-7--7-7-7h8-7-7-5--5-5-5h7-5-3--5-3-5-3~---------------------|
B|------------------------------------------------------------------------|
G|------------------------------------------------------------------------|
D|------------------------------------------------------------------------|
A|------------------------------------------------------------------------|
E|------------------------------------------------------------------------|

            
G                              C         D           G
Meu bem eu queria que você voltasse ao menos pra buscar
                                            D
Alguns objetos que na despedida você não levou
                            C              G
Um batom usado caído no canto da penteadeira
                             D
Um vestido velho cheio de poeira
            C          D           G
Jogado no quarto com marcas de amor

Refrão:

             D7            C                 G
Vestido de seda o seu manequim também te deixou
                               D
Ai no cantinho não tem mais valor
             C         D         G
Se não tem aquela que tanto te usou
                 D                C                   G
Eu também não passo de um trapo humano sem minha querida
                              D
Usado e jogado num canto da vida
               C        D            G
Não sei o que faço sem meu grande amor

Intro:G G7 C G D G

                               C           D       G
Eu já nem acendo a luz do meu quarto quando vou deitar
                                                      D
Porque no escuro não vejo no espelho meus olhos chorando
                                      C                 G
Não vou na cozinha pra não ver dois copos vazios na mesa
                                 D
Fazendo lembrar com tanta tristeza
             C       D       G
Da última noite que nós nos amamos
Acordes para:

    0 comentários

      mostrar mais comentários

      Conseguiu tocar?

      28tocaram0ainda não

      Grave um vídeo tocando Vestido de Seda e mande pra gente!

      00:00 / 00:00
      outros vídeos desta música
      repetirqualidadeautomática
      Outro vídeos desta música
        00:00 / 00:00
        automática
        OK