Cifra Club

When one i sleep

The Corrs

Cifra: Principal (violão e guitarra)
Selo Cifra Club: esta cifra foi revisada para atender aos critérios oficiais da nossa Equipe de Qualidade.
tom: B
Intro ( Bm D7 E Em A) 2x


E------------------------------------------------
B------------------------------------------------
G------------------------------------------------
D------------------------------------------------
A-14-16--17--19-21~~-14--16--17--19--21~~--------
E------------------------------------------------

E------------------------------------------------
B------------------------------------------------
G------------------------------------------------
D--21--19----------------------------------------
A----------21h19/17---19--21/14------------------
E------------------------------------------------

E------------------------------------------------
B------------------------------------------------
G------------------------------------------------
D------------------------------------------------
A--14--17--19/h/21/---12~~-----------------------
E------------------------------------------------

E------------------------------------------------
B------------------------------------------------
G------------------------------------------------
D------------------------------------------------
A---14h12-----12h14~~----------------------------
E----------14------------------------------------

VERSE PROGRESSION

Bm A E  
Bm A E
D  G^
D  G^

Chorus

Bm D7 E Em A
Bm D7 E Em A

Vocalization :  aaaaa aaaaa  

G^  Bm/G#  D/A
G^  Bm/G#  D/A


Interlude before Chorus


E------------------------------------------------
B------------------------------------------------
G------------------------------------------------
D------------------------------------------------
A---14--16--17---19~~----------------------------
E------------------------------------------------



Flute Solo:  2x

E-----------------------------------------------
B------------------------------------------21-22
G-17-17-15--17-17-15--17-17-15-17--19--21-------
D-----------------------------------------------
A-----------------------------------------------
E-----------------------------------------------

E------------------------------------------------
B-------------22--20--19--17--19--17------17-19--
G--17-15--17--------------------------19---------
D------------------------------------------------
A------------------------------------------------
E------------------------------------------------

E------------------------------------------------
B------------------------------------------------
G-17--15--17--17--15--17---17--15--17------------
D------------------------------------------------
A------------------------------------------------
E------------------------------------------------

E------------------------------------------------
B-----------------------------19--19--20--19-----
G--17--15--17---19---21---22---------------------
D------------------------------------------------
A------------------------------------------------
E------------------------------------------------

E------------------------------------------------
B--19-20-19---19--20--19--17-----17--19---17-----
G-----------------------------19--------------19-
D------------------------------------------------
A------------------------------------------------
E------------------------------------------------

E------------------------------------------------
B-17---------------------------------------------
G-----19/15/17-17-15-17--------------------------
D------------------------------------------------
A------------------------------------------------
E------------------------------------------------


End of music and chorus part Two  (repeat about 4 x)


E------------------------------------------------
B------------------------------------------------
G-13/17---15-13-12-------------------------------
D------------------------------------------------
A------------------------------------------------
E------------------------------------------------

E------------------------------------------------
B--15/19--17--15--14-----------------------------
G------------------------------------------------
D------------------------------------------------
A------------------------------------------------
E------------------------------------------------

E------------------------------------------------
B------------------------------------------------
G--17/19---17--15--14----------------------------
D------------------------------------------------
A------------------------------------------------
E------------------------------------------------

E------------------------------------------------
B--19/21---19--17--16----------------------------
G------------------------------------------------
D------------------------------------------------
A------------------------------------------------
E------------------------------------------------

Chord Formation:

      G^    Bm/G#    D/A

E-----2-------2-------2-----------------------------
B-----3-------3-------3-----------------------------
G-----0-------4-------2-----------------------------
D-----0-------2-------2-----------------------------
A-----0-------2-------2-----------------------------
E-----3-------4-------2-----------------------------
Outros vídeos desta música
    9.830 exibições
      • ½ Tom
      • A
      • Bb
      • B
      • C
      • Db
      • D
      • Eb
      • E
      • F
      • F#
      • G
      • Ab
    • Adicionar à lista

    Afinação da cifra

    Afinador online

      0 comentários

      Ver todos os comentários

      Entre para o Cifra Club PRO

      Tenha acesso a benefícios exclusivos no App e no Site

      • Chega de anúncios

      • Mais recursos no app do Afinador

      • Atendimento Prioritário

      • Aumente seu limite de lista

      • Ajude a produzir mais conteúdo

      Cifra Club Pro

      Aproveite o Cifra Club com benefícios exclusivos e sem anúncios
      Cifra Club Pro
      Aproveite o Cifra Club com benefícios exclusivos e sem anúncios
      OK