Cifra Club

Ode to my Family

The Cranberries

Cifra: Principal
exibições 271.543
Tom: D
Violão I

Intro 3x: D  Bm  F#m  G7M  A7(4)  C9

Primeira parte:

D        Bm                F#m
  Understand the things I say
       G7M   A7(4)    C9
Don't turn away from me
D                 Bm                F#m
  'Cause I spent half my life out there
     G7M      A7(4)  C9
You wouldn't disa__gree
D               Bm
  Do you see me,   do you see
        F#m             G7M      A7(4)    C9
Do you like me, do you like me standing there
D               Bm
  Do you notice,   do you know
        F#m            G7M
Do you see me, do you see me
     A7(4)   C9
Does anyone care

Refrão:

D         Bm                F#m
  Unhappiness, where's when I was young
        G7M    A7(4)  C9
And we didn't give a damn
D                 Bm
  'Cause we were raised
        F#m             G7M    A7(4)  C9
To see life as fun and take it if we can

D           Bm                F#m
  My mother,   my mother she hold me
         G7M         A7(4)       C9
Did she hold me when I was out there
D           Bm                F#m
  My father,   my father, he liked me
       G7M           A7(4)   C9
Oh he liked me, does anyone care

Intro: D  Bm  F#m  G7M  A7(4)  C9

Segunda parte:

D        Bm               F#m
  Understand what I've become
    G7M    A7(4)  C9
It wasn't my   design
D            Bm
  And people everywhere think
 F#m       G7M     A7(4)  C9
Something better than   I am
D                Bm
  But I miss you,   I miss
          F#m                G7M
'Cause I liked it, 'cause I liked it
     A7(4)       C9
When I was out there
D                  Bm
  Do you know this,   do you know
         F#m                  G7M
You did not find me, you did not find
     A7(4)   C9
Does anyone care

Refrão:

D         Bm                F#m
  Unhappiness, where's when I was young
        G7M    A7(4)  C9
And we didn't give a damn
D                 Bm
  'Cause we were raised
        F#m             G7M    A7(4)  C9
To see life as fun and take it if we can

D           Bm                F#m
  My mother,   my mother she hold me
         G7M         A7(4)       C9
Did she hold me when I was out there
D           Bm                F#m
  My father,   my father, he liked me
       G7M           A7(4)   C9  D
Oh he liked me, does anyone ca_____re

             Bm                F#m
Does anyone care, does anyone care
             G7M       A7(4)   C9  D
Does anyone care, does anyone ca_____re
             Bm                F#m
Does anyone care, does anyone care
             G7M  A7(4)  C9
Does anyone care

Intro 5x: D  Bm  F#m  G7M  A7(4)  C9

Violão II

Introdução:

1ª parte:


 D      Bm     F#m    G7M
E|---2------2------2------2----------------|
B|-----3------3------2------3--------------|
G|-----------------------------------------|
D|-0--------------------0------------------|
A|--------2------4-------------------------|
E|-----------------------------------------|


2ª parte:


 D      Bm     F#m    G7M
E|---2------2------2------2----------------|
B|-----3------3------2------3--3-----------|
G|-------------------------------2---------|
D|-0--------------------0----------4-------|
A|--------2------4-------------------------|
E|-----------------------------------------|


Dedilhado introdução e primeira parte:

1ª parte:


 D/F#              Bm
E|-----------------------------------------|
B|-3-----3-----3-----3-----3-----3---------|
G|---2-----2-----2-----4-----4-----4-------|
D|-----4-----4-----2-----4-----4-----2-----|
A|-----------------------------------------|
E|-----------------------------------------|


2ª parte:


 F#m               G5(9)
E|-----------------------------------------|
B|-2-----2-----2-----3---------------------|
G|---2-----2-----4-----2---2h4-2-2h4-2-2h4-|
D|-----4-----4-----2-----4-----------------|
A|-----------------------------------------|
E|-----------------------------------------|


1ª parte (variação):


 D/F#              Bm
E|-----------------------------------------|
B|-3-----3-----3-----3-----3-----3---------|
G|-2-2-----2-----2-----4-----4-----4-------|
D|-----4-----4-----2-----4-----4-----2-----|
A|-----------------------------------------|
E|-----------------------------------------|


Variação do ritmo do refrão:


E|-----------------------------------------|
B|-----------------------------------------|
G|-2h4-2-2h4-2-2h4-------------------------|
D|-----------------------------------------|
A|-----------------------------------------|
E|-----------------------------------------|
Acordes para:
    Composição: Dolores O'Riordan / Noel HoganColaboração e revisão:

    0 comentários

      mostrar mais comentários

      Conseguiu tocar?

      25tocaram0ainda não

      Grave um vídeo tocando Ode to my Family e mande pra gente!

      00:00 / 00:00
      outros vídeos desta música
      repetirqualidadeautomática
      Outro vídeos desta música
        00:00 / 00:00
        automática
        Capítulos
        • Início
        • Acordes da música
        • Tocando a música
        • Ensinando Ritmo da música - Violão Base
        • Acordes do Violão Solo
        • Tocando Primeira Parte - Violão Solo
        • Ensinando Introdução - Violão Solo
        • Ensinando Primeira Parte - Violão Solo
        • Ensinando Variação da Primeira Parte
        • Tocando Refrão
        • Ensinando Refrão - Violão Solo
        • Encerramento
        OK