Cifra Club

Aprenda

Are You Sitting Comfortably

The Moody Blues

Cifra: Principal (violão e guitarra)
Tom: C
(intro) G Dm

(guitar II - lead picking)
G            Dm              G                 Dm
Take another sit my love and see what you will see,
  G               Dm        G            Dm
A fleet of golden galleons, on a crystal sea.
C               Gmaj7
Are you sitting comfortably?
C                   Bm   Am   G    C    D   G  Em   (walkdown thing)(Em7 A7) G C
Let Merlin cast his spell.

G                 Dm             G                 Dm
Ride along the winds of time and see where we have been,
    G                Dm             G             Dm
The glorious age of Camelot of when Guinevere was Queen.
   C             Gmaj7
It all unfolds before your eyes
   C                Bm   Am   G    C    D   G  Em   (walkdown thing)(Em7 A7) G C
As Merlin casts his spell.

    G              Dm                G               Dm
The seven wonders of the world he'll lay before your feet,
   G                  Dm                G               Dm
In far-off lands, on distant shores, so many friends to meet.
C               Gmaj7
Are you sitting comfortably?
 C                Bm   Am   G    C    D   G  Em   (walkdown thing)(Em7 A7)
Let Merlin cast his spell.

(lead Pick during verse)
------------------------1-1-1------------|
-----0--1p-0-0---------------------------|
------------------------2-2-2------------|
-----0--0----0-------0---------0---------|
-----------------------------------------|
3-----------------------------------3----|

(walkdown thing)
--------------------------------------------------|
--------------------------------------------------|
--------------------------------------------------|
--2--2----2--0--0----0----------------------------|
------------------------4--4----4--3--3----3------|
----------------------------------------------0---|

( Em7 A7 - guitar II picks the same chords an octive higher)

  Em     A7
-7------5-----|
-8------5-----|
-9------6-----|
-9------5-----|
-7------7-----|
-7------5-----|
Composição de Justin Hayward / Ray Thomas
Colaboração e revisão:
  • Élison Duarte
451 exibições
    • ½ Tom
    • A
    • Bb
    • B
    • C
    • Db
    • D
    • Eb
    • E
    • F
    • F#
    • G
    • Ab
  • Adicionar à lista

    0 comentários

    Mostrar mais comentários

    Conseguiu tocar?

    0 Tocaram 0 Ainda não

    Grave um vídeo tocando Are You Sitting Comfortably e mande pra gente!

    00:00 / 00:00
    outros vídeos desta música
    repetir qualidade Automático
    Outros vídeos desta música
    00:00 / 00:00
    Automático

    Cifra Club Pro

    Aproveite o Cifra Club com benefícios exclusivos e sem anúncios
    7 dias grátis
    Cifra Club Pro
    Aproveite o Cifra Club com benefícios exclusivos e sem anúncios
    7 dias grátis
    OK