Cifra Club

Aprenda

Gemini Dream

The Moody Blues

Tab de baixo: Principal
G|-----------------------------------------------------------------------------|
D|-------------1------------------------------------1--------------------------|
A|-------1-3-----3-3-3-3-3-3-3-3-3-3-3--------1-3------3-3-3-3-3-3-3-3-3-3-3---|
E|-1-3----------------------------------1-3------------------------------------| x2

G|-----------------------------------------------------------------------------|
D|-------------1-------------------------------------1--3-3-3-3-3-3-3-3--------|
A|-------1-3-----3-3-3-3-3-3-3-3-3-3-3--------1-3-----------------------3-3-3--|
E|-1-3----------------------------------1-3------------------------------------| x2

G|-----------------------------------------------------------------------|
D|-------------1----------------------------------3-3-3-3-3-3-3-3--------|
A|-------1-3-----3-3-3-3-3-3-3-3-3-3-3-3-3-3-3-3-----------------3-3-3---|
E|-1-3-------------------------------------------------------------------| x3

G|-------------------------------------------------------------------------------------------------|
D|-----------1----------------------------------3-3-3-3-3-3-3-3--7-7-7-7-7-7-7-7-------------------|
A|-----1-3-----3-3-3-3-3-3-3-3-3-3-3-3-3-3-3-3-----------------------------------7-7-7-7-7-7-7-7---|
E|-1-3---------------------------------------------------------------------------------------------|

G|---------------------------------------------------------------|
D|-3-3-3-3--5-5-5-5---------------------3-3-3-3--5-5-5-5---------|
A|-------------------7-7-7-7------------------------------3-3-3--|
E|----------------------------5-5-5-5----------------------------|

G|-----------------------------------------------------------------------|
D|-------------1----------------------------------3-3-3-3-3-3-3-3--------|
A|-------1-3-----3-3-3-3-3-3-3-3-3-3-3-3-3-3-3-3------------------3-3-3--|
E|-1-3-------------------------------------------------------------------| x2

G|---------------------------------------------------------------------------------|
D|--------------------------------0-0-2-2-3-3-0-0-5-5-3-3-2-2-0-0------------------|
A|-------1-3-1--0-0-2-2-3-3-0-0-----------------------------------3-3-1-1-0-0------|
E|-1-3------------------------------------------------------------------------3-3--|

G|---------------------------------------------------------------------------------|
D|------------------0-0-2-2-3-3-0-0-5-5-5-5-5-5-5-5-6-6-6-6-6-6-6-6-7-7-7-7-7------|
A|--0-0-2-2-3-3-0-0-----------------------------------------------------------7\3--|
E|---------------------------------------------------------------------------------|

G|---------------------------------------------------------|
D|----------------------------------3-3-3-3-3-3-3-3--------|
A|--3-3-3-3-3-3-3-3-3-3-3-3-3-3-3-3-----------------3-3-3--|
E|---------------------------------------------------------|

G|-----------------------------------------------------------------------|
D|-------------1----------------------------------3-3-3-3-3-3-3-3--------|
A|-------1-3-----3-3-3-3-3-3-3-3-3-3-3-3-3-3-3-3------------------3-3-3--|
E|-1-3-------------------------------------------------------------------| x3

G|---------------------------------------------------------------------------------|
D|--------------------------------0-0-2-2-3-3-0-0-5-5-3-3-2-2-0-0------------------|
A|-------1-3-1--0-0-2-2-3-3-0-0-----------------------------------3-3-1-1-0-0------|
E|-1-3------------------------------------------------------------------------3-3--|

G|---------------------------------------------------------------------------------|
D|------------------0-0-2-2-3-3-0-0-5-5-5-5-5-5-5-5-6-6-6-6-6-6-6-6-7-7-7-7-7------|
A|--0-0-2-2-3-3-0-0-----------------------------------------------------------7\3--|
E|---------------------------------------------------------------------------------|

G|---------------------------------------------------------|
D|----------------------------------3-3-3-3-3-3-3-3--------|
A|--3-3-3-3-3-3-3-3-3-3-3-3-3-3-3-3-----------------3-3-3--|
E|---------------------------------------------------------|

G|-------------------------------------------------------------------------------------------------|
D|-----------1----------------------------------3-3-3-3-3-3-3-3--7-7-7-7-7-7-7-7-------------------|
A|-----1-3-----3-3-3-3-3-3-3-3-3-3-3-3-3-3-3-3-----------------------------------7-7-7-7-7-7-7-7---|
E|-1-3---------------------------------------------------------------------------------------------|

G|-------------------------------------------------------------------------|
D|-3-3-3-3--5-5-5-5---------------------3-3-3-3--2-2-2-2--5-5-5-5-5-5-5-5--|
A|-------------------7-7-7-7-----------------------------------------------|
E|----------------------------5-5-5-5--------------------------------------|

G|---------------------------------------------------------------|
D|-3-3-3-3--5-5-5-5---------------------3-3-3-3--5-5-5-5---------|
A|-------------------7-7-7-7------------------------------3-3-3--|
E|----------------------------5-5-5-5----------------------------|

G|-----------------------------------------------------------------------|
D|-------------1----------------------------------3-3-3-3-3-3-3-3--------|
A|-------1-3------3-3-3-3-3-3-3-3-3-3-3-3-3-3-3-3-----------------3-3-3--|
E|-1-3-------------------------------------------------------------------| x3

G|------------------------------------------------------------------|
D|-------------1----------------------------------3-------5------8--|
A|-------1-3------3-3-3-3-3-3-3-3-3-3-3-3-3-3-3-3-------------------|
E|-1-3--------------------------------------------------------------|

G|-12-10--8-5--3-0------------|
D|------------------3-1-------|
A|-----------------------1-1--|
E|----------------------------|

G|---------------------------------------------------------|
D|----------------------------------3-3-3-3-3-3-3-3--------|
A|--3-3-3-3-3-3-3-3-3-3-3-3-3-3-3-3-----------------3-3-3--|
E|---------------------------------------------------------|

G|------------------------------------------------------------------|
D|-------------1----------------------------------3-------5------8--|
A|-------1-3------3-3-3-3-3-3-3-3-3-3-3-3-3-3-3-3-------------------|
E|-1-3--------------------------------------------------------------|

G|-12-10--8-5--3-0------------|
D|------------------3-1-------|
A|-----------------------1----|
E|----------------------------|
Composição de John Lodge / Justin Hayward
Colaboração e revisão:
  • Élison Duarte
123 exibições

0 comentários

Mostrar mais comentários
00:00 / 00:00
outros vídeos desta música
repetir qualidade Automático
Outros vídeos desta música
00:00 / 00:00
Automático

Cifra Club Pro

Aproveite o Cifra Club com benefícios exclusivos e sem anúncios
7 dias grátis
Cifra Club Pro
Aproveite o Cifra Club com benefícios exclusivos e sem anúncios
7 dias grátis
OK