Cifra Club

Sweater Weather Tab

The Neighbourhood

Cifra: Principal (violão e guitarra)
Tom: B
Verse 1:
all I am...
E|-------------7------------------16-------|
B|----------9----9----------12------16-----|
G|----1-------------------------------16---|
D|----2------------------13----------------|
A|--2-----------------11-------------------|
E|0----------------------------------------| x4

she knows what I think about..
E|----------------------------|
B|----------------------------|
G|------6---------------------|
D|-2----6----6----8----9----4-|
A|-2----4----6----8----9----4-|
E|-0---------4----6----7----2-| x2


it's too cold...
    E    C#m  G#m  B
E|-0----4----4----2---|
B|-0----5----4----4---|
G|-1----6----4----4---|
D|-2----6----6----4---|
A|-2----4----6----2---|
E|-0----x----4----x---| x2


and if I may just take your breath away...
E|-------------7------------------16-------|
B|----------9----9----------12------16-----|
G|----1-------------------------------16---|
D|----2------------------13----------------|
A|--2-----------------11-------------------|
E|0----------------------------------------| x4


comin' down one love one house...
E|----------------------------|
B|----------------------------|
G|------6---------------------|
D|-2----6----6----8----9----4-|
A|-2----4----6----8----9----4-|
E|-0---------4----6----7----2-| x2


cause it's too cold...
    E    C#m  G#m  B
E|-0----4----4----2---|
B|-0----5----4----4---|
G|-1----6----4----4---|
D|-2----6----6----4---|
A|-2----4----6----2---|
E|-0----x----4----x---| x4

F#
woah...

      C#m      B       F#      F#
E|----4-------2-------2-------2--|
B|----5-------4-------2-------2--|
G|----6-------4-------3-------3--|
D|----6-------4-------4-------4--|
A|-4--4----2--2-------4-------4--|
E|----x-------x----2--2----2--2--| x6

Refrão:
      E      C#m     G#m      B
E|---0-------4-------4-------2---|
B|---0-------5-------4-------4---|
G|---1-------6-------4-------4---|
D|---2-------6-------6-------4---|
A|---2----4--4-------6----2--2---|
E|0--0-------x----4--4-------x---| x4

it's too cold, it's too cold...
{whole notes}
    E    C#m  G#m  B
E|-0----4----4----2---|
B|-0----5----4----4---|
G|-1----6----4----4---|
D|-2----6----6----4---|
A|-2----4----6----2---|
E|-0----x----4----x---| x4

finaliza com B
exibições 18.804
Acordes para:
    Colaboração e revisão:
    • Jayane Silva

    0 comentários

    mostrar mais comentários

    Conseguiu tocar?

    1 tocaram 3 ainda não

    Grave um vídeo tocando Sweater Weather Tab e mande pra gente!

    00:00 / 00:00
    outros vídeos desta música
    repetir qualidade Automático
    Outros vídeos desta música
    00:00 / 00:00
    Automático
    OK