Cifra Club

California Sun

The Outfield

Cifra: Principal (violão e guitarra)
Selo Cifra Club: esta cifra foi revisada para atender aos critérios oficiais da nossa Equipe de Qualidade.
tom: E
    A               Repeat 8x
E|-------------------------| |
B|-------------------------| |
G|--------2-0----------0--o| |
D|-----2----------2--2----o| |
A|--0----------0-----------| |
E|-------------------------| |

[Verse]
    A
E|------------------------------------------------------|
B|------------------------------------------------------|
G|--------2-0----------0--------2-0-----------0---------|
D|-----2----------2--2-------2----------2--2------------|
A|--0----------0----------0----------0------------------|
E|------------------------------------------------------|
              Walking along       through endless rain
    
    A                                
E|------------------------------------------------------|
B|------------------------------------------------------|
G|--------2-0----------0--------2-0-----------0---------|
D|-----2----------2--2-------2----------2--2------------|
A|--0----------0----------0----------0------------------|
E|------------------------------------------------------|
             Wonder if times        will ever change

    C                  D                   A
E|--------------------------------------------------------------------------------------|
B|--------------------------------------------------------------------------------------|
G|------0-----0----------0-2---0-2-0--------------2-0----------0--------2-0----------0--|
D|----2-----2---2------0-----0-------2---------2----------2--2-------2----------2--2----|
A|--3-----3-------3-------------------------0----------0----------0----------0----------|
E|--------------------------------------------------------------------------------------|
      Hearing the wind that cry's your name

E|------------------------------------------------------|
B|----------(0)~~~~~~~~~~~~~~~--------------------------| *Guitar 2 play open B string
G|--------2-0----------0--------2-0-----------0---------|
D|-----2----------2--2-------2----------2--2------------|
A|--0----------0----------0----------0------------------|
E|------------------------------------------------------|
              Too many leaves       upon the ground

E|------------------------------------------------------|
B|----------(0)~~~~~~~~~~~~~~~--------------------------| *Guitar 2 play open B string
G|--------2-0----------0--------2-0-----------0---------|
D|-----2----------2--2-------2----------2--2------------|
A|--0----------0----------0----------0------------------|
E|------------------------------------------------------|
             Everyone else         seems safe and sound

    C                  D                   A
E|--------------------------------------------------------------------------------------|
B|-------(0)~~~~~~~~~~~~~~~---------------(0)~~~~~~~~~~~~~~~----------------------------| *Gtr 2
G|------0-----0----------0-2---0-2-0--------------2-0----------0--------2-0----------0--|
D|----2-----2---2------0-----0-------2---------2----------2--2-------2----------2--2----|
A|--3-----3-------3-------------------------0----------0----------0----------0----------|
E|--------------------------------------------------------------------------------------|
        Faith is your only consolation


[Chorus]
    A   F#m                 G                  A       Repeat 2x 
E|--0----2------------------3------------------5-------| |
B|--2----2------------------3------------------5-------| |
G|--2----2------------------4------------------6------o| |
D|--2----4------------------5------------------7------o| |
A|--0----4------------------5------------------7-------| |
E|-------2------------------3------------------5-------| |
    One day the California sun will come your way
    One day the California sun will come your way


[Verse]
E|------------------------------------------------------|
B|----------(0)~~~~~~~~~~~~~~~--------------------------| *Guitar 2 play open B string
G|--------2-0----------0--------2-0-----------0---------|
D|-----2----------2--2-------2----------2--2------------|
A|--0----------0----------0----------0------------------|
E|------------------------------------------------------|
              Lost in a place       nobody home

E|------------------------------------------------------|
B|---------(0)~~~~~~~~~~~~~~~---------------------------| *Guitar 2 play open B string
G|--------2-0----------0--------2-0-----------0---------|
D|-----2----------2--2-------2----------2--2------------|
A|--0----------0----------0----------0------------------|
E|------------------------------------------------------|
            People around you      they're all alone

    C                  D                   A
E|--------------------------------------------------------------------------------------|
B|-------(0)~~~~~~~~~~~~~~~---------------(0)~~~~~~~~~~~~~~~----------------------------| *Gtr 2
G|------0-----0----------0-2---0-2-0--------------2-0----------0--------2-0----------0--|
D|----2-----2---2------0-----0-------2---------2----------2--2-------2----------2--2----|
A|--3-----3-------3-------------------------0----------0----------0----------0----------|
E|--------------------------------------------------------------------------------------|
        Failure is not your own invention (oh no)


[Chorus]
    A   F#m                 G                  A       Repeat 2x 
E|--0----2------------------3------------------5-------| |
B|--2----2------------------3------------------5-------| |
G|--2----2------------------4------------------6------o| |
D|--2----4------------------5------------------7------o| |
A|--0----4------------------5------------------7-------| |
E|-------2------------------3------------------5-------| |
    One day the California sun will come your way
    One day the California sun will come your way


[Solo]
E|---------------------------------------------------------------------|
B|-----10---10---8-7----10---10---8-7---------------------8------------|
G|--/9----9----9-----/9----9----9-----7/9-9--9-7-7-6---9----9-7-9-7-6--|
D|---------------------------------------------------7-----------------|
A|---------------------------------------------------------------------|
E|---------------------------------------------------------------------|

E|---------------------------------------------------------------|
B|-----10---10--12-10----10-----------10---10-12-10-b12-10-b12---|
G|--/9----9-----------12----12-11--/9----9-----------------------|
D|---------------------------------------------------------------|
A|---------------------------------------------------------------|
E|---------------------------------------------------------------|

E|---------------------------------------------------------------------------------|
B|------12----12-14-12--14b-14-12-12--12-14-12-----12------------------------------|
G|--/12----12-----------------------------------10----10--12-14-12--11b11b11-9~~~--|
D|---------------------------------------------------------------------------------|
A|---------------------------------------------------------------------------------|
E|---------------------------------------------------------------------------------|

[Verse]
E|------------------------------------------------------|
B|----------(0)~~~~~~~~~~~~~~~--------------------------| *Guitar 2 play open B string
G|--------2-0----------0--------2-0-----------0---------|
D|-----2----------2--2-------2----------2--2------------|
A|--0----------0----------0----------0------------------|
E|------------------------------------------------------|
              Waiting in line      taking your turn

E|------------------------------------------------------|
B|---------(0)~~~~~~~~~~~~~~~---------------------------| *Guitar 2 play open B string
G|--------2-0----------0--------2-0-----------0---------|
D|-----2----------2--2-------2----------2--2------------|
A|--0----------0----------0----------0------------------|
E|------------------------------------------------------|
             Every mistake's a lesson learned

    C                  D                   A
E|--------------------------------------------------------------------------------------|
B|-------(0)~~~~~~~~~~~~~~~---------------(0)~~~~~~~~~~~~~~~----------------------------| *Gtr 2
G|------0-----0----------0-2---0-2-0--------------2-0----------0--------2-0----------0--|
D|----2-----2---2------0-----0-------2---------2----------2--2-------2----------2--2----|
A|--3-----3-------3-------------------------0----------0----------0----------0----------|
E|--------------------------------------------------------------------------------------|
        Surviving the pain is no salvation (oh no)


[Chorus]
    A   F#m                 G                  A       Repeat 2x 
E|--0----2------------------3------------------5-------| |
B|--2----2------------------3------------------5-------| |
G|--2----2------------------4------------------6------o| |
D|--2----4------------------5------------------7------o| |
A|--0----4------------------5------------------7-------| |
E|-------2------------------3------------------5-------| |
    One day the California sun will come your way
    One day the California sun will come your way


[Outro]

(Rest)
One day Clifornia sun will come your way

                                         Repeat until fade
e||------------------------------------------------------||
B||------------------------------------------------------||
G||--------2-0----------0--------2-0-----------0--------o||
D||-----2----------2--2-------2----------2--2-----------o||
A||--0----------0----------0----------0------------------||
E||------------------------------------------------------||
             One day California sun will come your way
                    California sun will shine your way
            One day California sun will shine your way
            One day California sun will shine your way
            One day California sun will shine your way



************************************

| /  Slide up
| b  Bend
| ~  Vibrato
 
Outros vídeos desta música
    12 exibições
      • ½ Tom
      • A
      • Bb
      • B
      • C
      • Db
      • D
      • Eb
      • E
      • F
      • F#
      • G
      • Ab
    • Adicionar à lista

    Afinação da cifra

    Afinador online

      0 comentários

      Ver todos os comentários

      Entre para o Cifra Club PRO

      Tenha acesso a benefícios exclusivos no App e no Site

      • Chega de anúncios

      • Mais recursos no app do Afinador

      • Atendimento Prioritário

      • Aumente seu limite de lista

      • Ajude a produzir mais conteúdo

      Cifra Club Pro

      Aproveite o Cifra Club com benefícios exclusivos e sem anúncios
      Cifra Club Pro
      Aproveite o Cifra Club com benefícios exclusivos e sem anúncios
      OK