Cifra Club

Long Way Home

The Outfield

Cifra: Principal (violão e guitarra)
Selo Cifra Club: esta cifra foi revisada para atender aos critérios oficiais da nossa Equipe de Qualidade.
tom: C
    G    D    Em   C     G    D    Em   C              
E|--3----2----0-------|--3----2----0--------------|
B|--3----3----0----5--|--3----3----0----5---------|
G|--0----2----0----5--|--0----2----0----5---------|
D|--0----0----2----5--|--0----0----2----5---------|
A|--2---------2----3--|--2---------2----3---------|
E|--3---------0-------|--3---------0---------12\--|

                  (repeat 3x)
          D              C          D      Em    D   C    (Guitar 2)
E|------------------------------| |---------0~~----------|--0-0-0~~~---|
B|----------7~~-----------5~~---| |--7-7-7--0~~---7---5--|--1-1-1~~~---|
G|----------7~~-----------5~~--o| |--7-7-7--0~~---7---5--|--0-0-0~~~---|
D|----------7~~-----------5~~--o| |--7-7-7--2~~---7---5--|--2-2-2~~~---|
A|-------3--5~~--------0--3~~---| |--5-5-5--2~~---5---3--|--3-3-3------|
E|--3--5---------0--3-----------| |---------0------------|-------------|
                         whoo-ooo
                         waa-ohh-ohh
                         ooo-whoo-ooo   

[Verse]
    G                               C
E|-------------------------------------|
B|------3-----------3---------------5--|
G|----------0-----------2-----------5--|
D|--0-----------0-----------0-------5--|
A|----------------------------------3--|
E|-------------------------------------|
    I drive these streets alone in silence

    G                       C       D
E|-------------------------------------|
B|-----3--------3-----------5-------7--|
G|--------0--------2--------5-------7--|
D|--0--------0--------0-----5-------7--|
A|--------------------------3-------5--|
E|-------------------------------------|
   Another ride trying to clear my head

    G                           C          D
E|--------------------------------------------|
B|-----3-----------3------------5----------7--|
G|---------0-----------2--------5----------7--|
D|--0----------0-----------0----5----------7--|
A|------------------------------3----------5--|
E|--------------------------------------------|
    But all I hear is just the beat of my heart

    C           D            Em     C
E|--------------------------------------|
B|--------------------------------------|
G|--5----------7--------------0------5--|
D|--5----------7--------------2------5--|
A|--3----------5--------------2------3--|
E|----------------------------0---------|
    I think of her but I see you instead

[Chorus]
                G              D          Em           C 
E|-----------------------------------------------------------|
B|-----------------------------7~~---------------------5~~---|
G|-----------------------------7~~---------------------5~~---|
D|-----------------------------7~~---------------------5~~---|
A|-----------------------3-----5~~----------------0----3~~---|
E|-----12\------3----5---------------------0---3-------------|
And there's a thousand little lies  A thousand little reasons

      G                D            Em         C
E|----3--3--3----------------------------------------|
B|----3--3--3----------7~~---------------------5~~---|
G|----4--4--4----------7~~---------------------5~~---|
D|----5--5--5----------7~~---------------------5~~---|
A|----5--5--5----------5~~----------------0----3~~---|
E|----3--3--3-----------------------0--3-------------|
              For me to stay       for me to   go

                G              D            Em     C        D      Em               D  C   (Guitar 2)
E|-------------------------------------------------------|---------0~~-------------------|--0-0-0~~--|
B|-----------------------------7~~-----------------5~~---|--7-7-7--0~~--------------7--5-|--1-1-1~~--|
G|-----------------------------7~~-----------------5~~---|--7-7-7--0~~--------------7--5-|--0-0-0~~--|
D|-----------------------------7~~-----------------5~~---|--7-7-7--2~~--------------7--5-|--2-2-2~~--|
A|-----------------------3-----5~~---------------0-3~~---|--5-5-5--2~~--------------5--3-|--3-3-3----|
E|--------------3----5-----------------------0-3---------|---------0---------------------|-----------|
And there's a thousand little voices  inside my head saying       Take the long way ho-me

[Verse]
    G                            C
E|----------------------------------|
B|------3-----------3------------5--|
G|----------0-----------2--------5--|
D|--0-----------0-----------0----5--|
A|-------------------------------3--|
E|----------------------------------|
    I tell myself that it's all over

    G                         C          D
E|------------------------------------------|
B|-----3---------3------------5----------7--|
G|--------0----------2--------5----------7--|
D|--0--------0-----------0----5----------7--|
A|----------------------------3----------5--|
E|------------------------------------------|
    But then I see you and I just don't know

    G                         C          D
E|------------------------------------------|
B|-----3---------3------------5----------7--|
G|--------0----------2--------5----------7--|
D|--0--------0-----------0----5----------7--|
A|----------------------------3----------5--|
E|------------------------------------------|
 What should I listen to my heart or my mind

    C                D                 Em           C
E|-----------------------------------------------------|
B|-----------------------------------------------------|
G|--5-5-5------------7------------------0-----------5--|
D|--5-5-5------------7------------------2-----------5--|
A|--3-5-5------------5------------------2-----------3--|
E|--------------------------------------0--------------|
          Too tired to think about the way I should go

[Chorus]
                G              D          Em           C 
E|-----------------------------------------------------------|
B|-----------------------------7~~---------------------5~~---|
G|-----------------------------7~~---------------------5~~---|
D|-----------------------------7~~---------------------5~~---|
A|-----------------------3-----5~~----------------0----3~~---|
E|--------------3----5---------------------0---3-------------|
And there's a thousand little lies  A thousand little reasons

      G                D            Em         C
E|----3--3--3----------------------------------------|
B|----3--3--3----------7~~---------------------5~~---|
G|----4--4--4----------7~~---------------------5~~---|
D|----5--5--5----------7~~---------------------5~~---|
A|----5--5--5----------5~~----------------0----3~~---|
E|----3--3--3-----------------------0--3-------------|
              For me to stay       for me to   go

                G              D            Em     C        D      Em               D  C   (Guitar 2)
E|-------------------------------------------------------|---------0~~-------------------|--0-0-0~~--|
B|-----------------------------7~~-----------------5~~---|--7-7-7--0~~--------------7--5-|--1-1-1~~--|
G|-----------------------------7~~-----------------5~~---|--7-7-7--0~~--------------7--5-|--0-0-0~~--|
D|-----------------------------7~~-----------------5~~---|--7-7-7--2~~--------------7--5-|--2-2-2~~--|
A|-----------------------3-----5~~---------------0-3~~---|--5-5-5--2~~--------------5--3-|--3-3-3~~--|
E|--------------3----5-----------------------0-3---------|---------0---------------------|-----------|
And there's a thousand little voices  inside my head saying       Take the long way ho-me

[Bridge]
    Bm                                                            C
E|--2-------------2----------------------2------2-----------------------------|
B|--3-------------3----------------------3------3-----------------5--------5--|
G|--4-------------4----------------------4------4-----------------5--------5--|
D|--4-------------4----------------------4------4-----------------5--------5--|
A|--2-------------2----------------------2------2-----------------3--------3--|
E|----------------------------------------------------------------------------|
      There's no one out there when you need to decide and you're on your own

    A
E|--5------------5----------------------5-----------------5--|
B|--5------------5----------------------5-----------------5--|
G|--6------------6----------------------6-----------------6--|
D|--7------------7----------------------7-----------------7--|
A|--7------------7----------------------7-----------------7--|
E|--5------------5----------------------5-----------------5--|
       You keep on thinking 'bout the wrong that you've done
    F
E|--1-----------------------------1------------1--x-x--1--1-1--|
B|--1-----------------------------1------------1--x-x--1--1-1--|
G|--2-----------------------------2------------2--x-x--2--2-2--|
D|--3-----------------------------3------------3--x-x--3--3-3--|
A|--3-----------------------------3------------3--x-x--3--3-3--|
E|--1-----------------------------1------------1--x-x--1--1-1--|
      You try to hide but there's no place to run

[Solo] 
    G           D            Em          C              G                   D       Em             C    
E|----------------------------------------------------------------------------------17-b-r-15------------|
B|--------------------------------------------|----15------15-----15-----15-17~~~------------17h15-17~~--|
G|--------------------------------------------|-/16---16h17--16h17--16h17--------------------------------|
D|-10-10--12-10-12~~~--------10~~-------------|----------------------------------------------------------|
A|---------------------10h12-------12p10------|----------------------------------------------------------|
E|--------------------------------------12~~~-|----------------------------------------------------------|

    G     D     Em         C     G                    D         Em      C   
E|---------------------------|------------------------12--------15---------|
B|---------------------------|-------------------------pb11~~~----15~~~~---|
G|--4~~~--2~~~--4-2-0--------|------------7tr9--9tr11----------------------|
D|---------------------2-0---|-------7tr9----------------------------------|
A|-------------------------3-|--7tr9---------------------------------------|
E|---------------------------|---------------------------------------------|

[Chorus]
                G              D          Em           C 
E|-----------------------------------------------------------|
B|-----------------------------7~~---------------------5~~---|
G|-----------------------------7~~---------------------5~~---|
D|-----------------------------7~~---------------------5~~---|
A|-----------------------3-----5~~----------------0----3~~---|
E|--------------3----5---------------------0---3-------------|
And there's a thousand little lies  A thousand little reasons

      G                D            Em         C
E|----3--3--3----------------------------------------|
B|----3--3--3----------7~~---------------------5~~---|
G|----4--4--4----------7~~---------------------5~~---|
D|----5--5--5----------7~~---------------------5~~---|
A|----5--5--5----------5~~----------------0----3~~---|
E|----3--3--3-----------------------0--3-------------|
              For me to stay       for me to   go

                G              D            Em     C        D      Em               D  C
E|-------------------------------------------------------|---------0~~--------------------|
B|-----------------------------7~~-----------------5~~---|--7-7-7--0~~--------------7--5--|
G|-----------------------------7~~-----------------5~~---|--7-7-7--0~~--------------7--5--|
D|-----------------------------7~~-----------------5~~---|--7-7-7--2~~--------------7--5--|
A|-----------------------3-----5~~---------------0-3~~---|--5-5-5--2~~--------------5--3--|
E|--------------3----5-----------------------0-3---------|---------0----------------------|
And there's a thousand little voices  inside my head saying       Take the long way ho-me

                G              D          Em           C 
E|-----------------------------------------------------------|
B|-----------------------------7~~---------------------5~~---|
G|-----------------------------7~~---------------------5~~---|
D|-----------------------------7~~---------------------5~~---|
A|-----------------------3-----5~~----------------0----3~~---|
E|--------------3----5---------------------0---3-------------|
And there's a thousand little lies  A thousand little reasons

      G                D            Em         C
E|----3--3--3----------------------------------------|
B|----3--3--3----------7~~---------------------5~~---|
G|----4--4--4----------7~~---------------------5~~---|
D|----5--5--5----------7~~---------------------5~~---|
A|----5--5--5----------5~~----------------0----3~~---|
E|----3--3--3-----------------------0--3-------------|
              For me to stay       for me to   go

                G              D            Em     C        D      Em               D  C
E|-------------------------------------------------------|---------0~~--------------------|
B|-----------------------------7~~-----------------5~~---|--7-7-7--0~~--------------7--5--|
G|-----------------------------7~~-----------------5~~---|--7-7-7--0~~--------------7--5--|
D|-----------------------------7~~-----------------5~~---|--7-7-7--2~~--------------7--5--|
A|-----------------------3-----5~~---------------0-3~~---|--5-5-5--2~~--------------5--3--|
E|--------------3----5-----------------------0-3---------|---------0----------------------|
And there's a thousand little voices  inside my head saying       Take the long way ho-me   ooooo

[Outro Solo]
        G     D           Em         C          G          D         Em          C   
E|---------------------------------------|------10-8-7---7-----------10p8-10-8-7h8----|
B|--8-8-12~~--10~~------8h10p8-----------|-8-8---------8--------8-8--10p8-10-8-7h8----|
G|------------------7h9--------9-7-------|-----------------9~~------------------------|
D|---------------------------------9-5~~-|--------------------------------------------|
A|---------------------------------------|--------------------------------------------|
E|---------------------------------------|--------------------------------------------|

          G                   D                  Em              C     
E|--15-15-15-15-17~~-15-15-15-15-15-17~~--15-15-15-15-17-15-15-17b-15-17-15-----------|
B|--------------------------------------------------------------------------17-15-----|
G|--------------------------------------------------------------------------------14--|
D|------------------------------------------------------------------------------------|
A|------------------------------------------------------------------------------------|
E|------------------------------------------------------------------------------------|

    D      Em     D     C     
E|----------------15-14-15~~---|
B|--15~~~--17~~~---------------|
G|-----------------------------|
D|-----------------------------|
A|-----------------------------|
E|-----------------------------|

    Guitar 2                         Guitar 1 fades in with the C chord feedback as song fades out
E|--0-0-0~~----0-0-0~~----0-0-0~~----0-0-0~~---|
B|--1-1-1~~----1-1-1~~----1-1-1~~----1-1-1~~---|
G|--0-0-0~~----0-0-0~~----0-0-0~~----0-0-0~~---|
D|--2-2-2~~----2-2-2~~----2-2-2~~----2-2-2~~---|
A|---------------------------------------------|
E|---------------------------------------------|



************************************
 
| \    Slide down
| x    Dead note
| /    Slide up
| ~    Vibrato
| (n)  Ghost note
| tr   trill
| pb   pre-bend, then slow release
| h    hammer on note
| p    pull off from note
 
Outros vídeos desta música
    27 exibições
      • ½ Tom
      • A
      • Bb
      • B
      • C
      • Db
      • D
      • Eb
      • E
      • F
      • F#
      • G
      • Ab
    • Adicionar à lista

    Afinação da cifra

    Afinador online

      0 comentários

      Ver todos os comentários

      Entre para o Cifra Club PRO

      Tenha acesso a benefícios exclusivos no App e no Site

      • Chega de anúncios

      • Mais recursos no app do Afinador

      • Atendimento Prioritário

      • Aumente seu limite de lista

      • Ajude a produzir mais conteúdo

      Cifra Club Pro

      Aproveite o Cifra Club com benefícios exclusivos e sem anúncios
      Cifra Club Pro
      Aproveite o Cifra Club com benefícios exclusivos e sem anúncios
      OK