Cifra Club

Dangerous

The XX

Tab de baixo: Principal
 [Intro] (x3)
G|--------------------------------------------------------------------------------|
D|--------------------------------------------------------------------------------|
A|-------1h4-1---1h4-1---1h4-1---1-3-4-3---1h4---1h4---1h4---------0-3------------|
E|---------------------------------------------------------2------2------2---2-1--|

[Chorus] (x2)
G|-----------------------------------------------------------------------------|
D|-----------------------------------------------------------------------------|
A|---8---6----4---3-----6666666----8---6---4---3----------------------1-3-4-3--|
E|-----6---4----2---1---------------------6---4----2---1---4-66666666----------|

[Bridge] (x2)
G|--------------------------------------------------------------|
D|--------------------------------------------------------------|
A|---1-1-3-3-4~----1-1-3-6-4~--------1-1-3-3-4~-----1-1-3-6-4~--|
E|--------------------------------------------------------------|

[Instrumental] (x3)
G|--------------------------------------------------------------------------------|
D|--------------------------------------------------------------------------------|
A|-------1h4-1---1h4-1---1h4-1---1-3-4-3---1h4---1h4---1h4---------0-3------------|
E|---------------------------------------------------------2------2------2---2-1--|

[Chorus] (x2)
G|-----------------------------------------------------------------------------|
D|-----------------------------------------------------------------------------|
A|---8---6----4---3-----6666666----8---6---4---3----------------------1-3-4-3--|
E|-----6---4----2---1---------------------6---4----2---1---4-66666666----------|

[Bridge] (x6)
G|--------------------------------------------------------------|
D|--------------------------------------------------------------|
A|---1-1-3-3-4~----1-1-3-6-4~--------1-1-3-3-4~-----1-1-3-6-4~--|
E|--------------------------------------------------------------|

[Outro]
G|------------------------------------------------------------------------|
D|------------------------------------------------------------------------|
A|---8---6----4---3-----6~----8---6---4---3-------------------------------|
E|-----6---4----2---1-----------6---4----2---1---4-6~---------------------|            
Submit corrections
00:00 / 00:00
Outros vídeos desta música
Repetir
Outros vídeos desta música
Composição de Jamie xx / Oliver Sim / Romy Madley Croft
Colaboração e revisão:
  • Victor Furlan
402 exibições

0 comentários

Ver todos os comentários

Conseguiu tocar?

1 Tocaram 0 Ainda não

Grave um vídeo tocando Dangerous e nos envie!

Entre para oCifra Club PRO

Tenha acesso a benefícios exclusivos no App e no Site

  • Chega de anúncios

  • Prioridade de compra em lançamentos

  • Mais recursos no app do Afinador

  • Atendimento Prioritário

  • Descontos nos produtos Cifra Club

  • Ajude a produzir mais conteúdo

00:00 / 00:00

Cifra Club Pro

Aproveite o Cifra Club com benefícios exclusivos e sem anúncios
Cifra Club Pro
Aproveite o Cifra Club com benefícios exclusivos e sem anúncios
OK