Cifra Club

Aprenda

Ela Partiu

Tim Maia

Tab de baixo: Principal
Já pensou em usar uma coleção de roupas do Cifra Club? Responda as perguntas abaixo e nos ajude nessa missão! →
G|---------------------------------------------------|
D|---------------------------------------------------|
A|-7-7-7-7-7-7-7-7-7-7-7-7-7-7-7-7-7-7-7-7-7-7-7-7---|
E|---------------------------------------------------|

G|---------------------------------------------------|
D|---------------------------------------------------|
A|-3-3-3-3-3-3-3-3-3-3-3-3-3-3-3-3-3-3-3-3-3-3-3-3---|
E|---------------------------------------------------|

G|---------------------------------------------------|
D|---------------------------------------------------|
A|3-7-3-5--3-5--3-7-3-5--3-5--3-7-3-5--3-5--3-7-3-5--|
E|---------------------------------------------------|

G|---------------------------------------------------|
D|3-5-6------5---------------------------------------|
A|-------5-3---2-------------------------------------|
E|---------------------------------------------------|

G|---------------------------------------------------|
D|--------------------3-5-6-------5------------------|
A|7-3-7-3-7-3-7-3--5---------5-3-----2---------------|
E|---------------------------------------------------|
Composição de Beto Cajueiro / Tim Maia
Colaboração e revisão:
558 exibições

0 comentários

Ver todos os comentários

Conseguiu tocar?

2 Tocaram 3 Ainda não

Grave um vídeo tocando Ela Partiu e nos envie!

00:00 / 00:00
Outros vídeos desta música
Repetir Qualidade Automático
Outros vídeos desta música
00:00 / 00:00
Automático

Cifra Club Pro

Aproveite o Cifra Club com benefícios exclusivos e sem anúncios
Cifra Club Pro
Aproveite o Cifra Club com benefícios exclusivos e sem anúncios
OK