Cifra Club

Aprenda

Carta ao Tom 74

Toquinho

Cifra: Principal (violão e guitarra)
tom: G
[Intro] Am6  E/G#  Gm7  C7    
        F7M  Fm6  Em7 
        Am7  D7(9)  Ab6  C#7(b5)

E|-5--7--8--7--5-------------------3--5--6--5--3-8--5--3--5-----------------|
B|---------------5--3--5| -5--4--3----------------------------------------5-|
G|----------------------------------------------------------7--5--7--7-5-7---|
D|--------------------------------------------------------------------------|
A|--------------------------------------------------------------------------|
E|--------------------------------------------------------------------------|

E|----3--5h8--5--3----------------------------------------------------------|
B|-5---------------5--3----3-----3--3-----5--3------------------------------|
G|----------------------------5--------5---------5--------------------------|
D|--------------------------------------------------6--5--------------------|
A|--------------------------------------------------------------------------|
E|--------------------------------------------------------------------------|

C7M              G/B            Am7
Rua Nascimento e Silva, cento e sete
         C7/G         D/F#
Você ensinando pra Eliseth
                  Fm6           Gm7    C7(9)
As canções de "canção do amor demais”

D/F#               Fm6             Em7
Lembra que tempo feliz, ai, que saudade
            Am7     D7(9)
Ipanema era só felicidade
                            Fm6/Ab    C7M/G
Era como se o amor doesse em paz

C7M          G/B          Am7
Nossa famosa garota nem sabia
               C7/G       D/F#
A que ponto a cidade turvaria
            Fm6            Gm7   C7(9)
Esse Rio de amor que se perdeu

F#m7(b5)            Fm6            Em7
Mesmo a tristeza da gente era mais bela
               A7(b9)   D7(9)
E além disso se via da janela
                G7          Gm6    C7(9)
Um cantinho de céu e o redentor

F#m7(b5)         Fm6          Em7
É, meu amigo, só resta uma certeza
            A7(b9)           D7(9)
É preciso acabar com essa tristeza
               Ab6           C6(9)
É preciso inventar de novo o amor
Composição de Vinícius de Moraes
Colaboração e revisão:
132.961 exibições
    • ½ Tom
    • A
    • Bb
    • B
    • C
    • Db
    • D
    • Eb
    • E
    • F
    • F#
    • G
    • Ab
  • Adicionar à lista

    0 comentários

    Ver todos os comentários

    Conseguiu tocar?

    23 Tocaram 3 Ainda não

    Grave um vídeo tocando Carta ao Tom 74 e nos envie!

    00:00 / 00:00
    outros vídeos desta música
    repetir qualidade Automático
    Outros vídeos desta música
    00:00 / 00:00
    Automático

    Cifra Club Pro

    Aproveite o Cifra Club com benefícios exclusivos e sem anúncios
    Cifra Club Pro
    Aproveite o Cifra Club com benefícios exclusivos e sem anúncios
    OK