Cifra Club

Aprenda

Countess Bathory

Venom

Cifra: Versão 2 (violão e guitarra)
tom: C
Album: Black Metal


Transcribed By: Johnny (Miskimmin)



.  - palm mute           /  - slide up to
\  - slide down to       ~  - vibrato
p  - pull off            Suffixes for bend
t  - tap                 f  - full bend    h - half bend
ph - pinched harmonic    q  - quarter bend t - tap bend
*  - see comment         ^  - Hold bend    r release bend
,  - slight palm mute    () - ghost note, sustained note
"  - tremolo note         - Trill

Tuning C# F# B E G# C#

Main Riff
|-------------------------------------------------------------------|
|-------------------------------------------------------------------|
|-9-9---------------7-7---------------------------------------------|
|-9-9--------10-----7-7---------9-----------------------------------|
|-7-7--------10-----5-5---------9-----------------------------------|
|-----888888-8--88-------777777-7-----------------------------------|
      ......    ..       ......

|-------------------------------------------------------------------|
|-------------------------------------------------------------------|
|-2-2------------2-2----------------2-2------------2*---------------|
|-2-2---------5--2-2---------7-\-5--2-2--------5---2*---------------|
|-0-0-000000--3--0-0-000000--5-\-3--0-0-000000-3---0*---------------|
|-------------------------------------------------------------------|
      ......         ......             ......     *Drop Whammy Bar Slowly

Rhythm behind lyrics
|-------------------------------------------------------------------|
|-------------------------------------------------------------------|
|-2----------------2--------5-------2----------------2-------5------|
|-2----------------2--------5-------2----------------2-------5------|
|-0-------5b-------0--------3-------0--------5b------0-------3------|
|---------3b---------------------------------3b---------------------|
               "Countess.........
|-------------------------------------------------------------------|
|-------------------------------------------------------------------|
|-4---4---------9-9----------------7-7------------------------------|
|-4---4---------9-9----------------7-7---------9--------------------|
|-2---2---------7-7---------10-----5-5---------9--------------------|
|--------------------888888-8--88-------777777-7--------------------|
                     ......    ..       ......

Bridge
|-------------------------------------------------------------------|
|-------------------------------------------------------------------|
|-7--5--4--2-2-------------------------7--5--4--2-2-----------------|
|-7--5--4--2-2--2----------------------7--5--4--2-2-2---------------|
|-5--3--2--0-0--0--000-000-000-000-00--5--3--2--0-0-0---------------|
|-------------------------------------------------------------------|
           .       ... ... ... ... ..           .

|-------------------------------------------------------------------|
|-------------------------------------------------------------------|
|--------------------5--4----------9-9------------------------------|
|--------------------5--4--5b------9-9------------------------------|
|-000-000-000-000-00-3--2--5b------7-7------------------------------|
|--------------------------3b------0-0------------------------------|
  ... ... ... ... ..

|-------------------------------------------------------------------|
|-------------------------------------------------------------------|
|-------------------------------------------------------------------|
|---------------7---------------------------------------------------|
|-7--10--9--10-----10--9--7---10--9--7--9---10--12------------------|
|-------------------------------------------8---10------------------|
  ,   ,  ,   ,  ,   ,  ,  ,    ,  ,  ,  ,

|-------------------------------------------------------------------|
|-------------------------------------------------------------------|
|-------------------------------------------------------------------|
|---------------7---------------------------------------------------|
|-7--10--9--10-----10--9--7---10--9--7--9---10----------------------|
|-------------------------------------------8-----------------------|
  ,   ,  ,   ,  ,   ,  ,  ,    ,  ,  ,  ,

|-------------------------------------------------------------------|
|-------------------------------------------------------------------|
|-9-9----------------7-7--------------------------------------------|
|-9-9----------------7-7---------9----------------------------------|
|-7-7---------10-----5-5---------9----------------------------------|
|------888888-8--88-------777777-7----------------------------------|
       ......    ..       ......

END
Composição de Conrad Lant / Jeff Dunn / Tony Bray
232 exibições
    • ½ Tom
    • A
    • Bb
    • B
    • C
    • Db
    • D
    • Eb
    • E
    • F
    • F#
    • G
    • Ab
  • Adicionar à lista

    0 comentários

    Ver todos os comentários

    Conseguiu tocar?

    0 Tocaram 0 Ainda não

    Grave um vídeo tocando Countess Bathory e nos envie!

    00:00 / 00:00
    Outros vídeos desta música
    Repetir Qualidade Automático
    Outros vídeos desta música
    00:00 / 00:00
    Automático

    Cifra Club Pro

    Aproveite o Cifra Club com benefícios exclusivos e sem anúncios
    Cifra Club Pro
    Aproveite o Cifra Club com benefícios exclusivos e sem anúncios
    OK