Cifra Club

Hora do Salvador

Voz da Verdade

Cifra: Versão 4 (violão e guitarra)
Selo Cifra Club: esta cifra foi revisada para atender aos critérios oficiais da nossa Equipe de Qualidade.
tom: B

E|--------------------------------------------------------------------------------
B|--------------------------------------------------------------------------------
G|---8-9-11-11-9-8-8------8----8-8-------------------------8---8--8-9---9-8-9-8---
D|-------------------11-9--9-11---11-9-8--9--8-9-9---9-11-9------9-------------11-
A|--------------------------------------11-11-------------------------------------
E|--------------------------------------------------------------------------------

Base:B,G#m,E,B,E,F#,B
 
  B                       G#m  
Quando a vida se torna difícil 
                          E   
Quando vc nao se sente alguém 
                               B 
Quando o desprezo invade sua alma 
              E               F#     
Quando das marcas só restam feridas 
           B             G#m        
Quando o amor não é alcançado 
                             E   
Qaundo o mundo te deixa de lado 
                        B   
E o coração explode na dor  
           E   F#      B       
É hora de ter o salvador 

      Refrão

         E            F#            
O salvador, Ele e Jesus 
           B             E      
Que por você morreu na cruz 
       C#m                F#           B   
Tua vergonha o teu desprezo, Ele levou 
            E                  F#   
Carregue a tua cruz, juntinho Dele  
           B              E        
E a força Dele te torna capaz 
   C#m                    F# 
O amor que o mundo nao te deu  
         B  
Jesus te dá 

Base:B,G#m,E,B,E,F#,B

E|--------------------------------------------------------------------------------
B|--------------------------------------------------------------------------------
G|---8-9-11-11-9-8-8------8----8-8-------------------------8---8--8-9---9-8-9-8---
D|-------------------11-9--9-11---11-9-8--9--8-9-9---9-11-9------9-------------11-
A|--------------------------------------11-11-------------------------------------
E|--------------------------------------------------------------------------------

E|------------------------------------------------------------------------------
B|------------------------------------------------------------------------------
G|---8-9-11-11-9-8-8-----8----8-8-------------------------8---8-8-9-----8-------
D|------------------11-9--9-11---11-9-8--9--8-9-9---9-11-9-----9---------11-9-9-
A|-------------------------------------11-11------------------------------------
E|------------------------------------------------------------------------------
Outros vídeos desta música
    5.700 exibições
      • ½ Tom
      • A
      • Bb
      • B
      • C
      • Db
      • D
      • Eb
      • E
      • F
      • F#
      • G
      • Ab
    • Adicionar à lista

    Afinação da cifra

    Afinador online

      0 comentários

      Ver todos os comentários

      Entre para o Cifra Club PRO

      Tenha acesso a benefícios exclusivos no App e no Site

      • Chega de anúncios

      • Mais recursos no app do Afinador

      • Atendimento Prioritário

      • Aumente seu limite de lista

      • Ajude a produzir mais conteúdo

      Cifra Club Pro

      Aproveite o Cifra Club com benefícios exclusivos e sem anúncios
      Cifra Club Pro
      Aproveite o Cifra Club com benefícios exclusivos e sem anúncios
      OK