Cifra Club

Agora É Pra Valer

Wesley Safadão

Cifra: Principal
exibições 75.701
Tom: E
Intro: E  B  F#m  A

Riff 1
E|-------------------------4-4-------------------|
B|----4/5-5----5-4-4-2-0---------2-4/5-----------|
G|--4-------4------------------------------------|
D|-----------------------------------------------|
A|-----------------------------------------------|
E|-----------------------------------------------|

Primeira Parte:

               C#m
Vou me dar um tempo
      A
Pra ajeitar as minhas confusões
     E                    B
Vou rejeitar as suas ligações
                C#m
Eu tô perdendo tempo, tempo, tempo
   A
Te esperando aqui nesse sofá
             E                  B
Eu conto as horas pra te encontrar
       C#m
O café esfria, o cigarro apaga
              A
O sentimento nasce, cresce e acaba
             E
O tempo vai passando
             F#m
E o vento leva tudo
 C#m
Não duvide nunca
            B
Que eu amo você
Mas só de amor
                  F#m
Ninguém consegue sobreviver
A
Iêêê

Refrão 2x:

E
E aí
 B
Já disse o que eu tinha pra dizer
             F#m
E já tô indo embora
      A
Não precisa me acompanhar
                     E
Já sei o caminho da porta
     B
Que fique claro pra você
                       F#m
Que agora vai ser pra valer
                       A
Que agora vai ser pra valer 

Riff 1 Intro: E  B  F#m  A

E|-------------------------4-4-------------------|
B|----4/5-5----5-4-4-2-0---------2-4/5-----------|
G|--4-------4------------------------------------|
D|-----------------------------------------------|
A|-----------------------------------------------|
E|-----------------------------------------------|

Primeira Parte:

               C#m
Vou me dar um tempo
      A
Pra ajeitar as minhas confusões
     E                    B
Vou rejeitar as suas ligações
                C#m
Eu tô perdendo tempo, tempo, tempo
   A
Te esperando aqui nesse sofá
             E                  B
Eu conto as horas pra te encontrar
       C#m
O café esfria, o cigarro apaga
              A
O sentimento nasce, cresce e acaba
             E
O tempo vai passando
             F#m
E o vento leva tudo
 C#m
Não duvide nunca
            B
Que eu amo você
Mas só de amor
                  F#m
Ninguém consegue sobreviver
A
Iêêê

Refrão 2x:

E
E aí
 B
Já disse o que eu tinha pra dizer
             F#m
E já tô indo embora
      A
Não precisa me acompanhar
                     E
Já sei o caminho da porta
     B
Que fique claro pra você
                       F#m
Que agora vai ser pra valer
                       A
Que agora vai ser pra valer

Final: E  B  F#m  A

Riff 1
E|-------------------------4-4-------------------|
B|-----4/5-5----5-4-4-2-0---------2-4/5----------|
G|--4--------4-----------------------------------|
D|-----------------------------------------------|
A|-----------------------------------------------|
E|-----------------------------------------------|
Acordes para:
    Colaboração e revisão:
    • Matheus Costa
    • Emanuel Santos

    0 comentários

      mostrar mais comentários

      Conseguiu tocar?

      11tocaram0ainda não

      Grave um vídeo tocando Agora É Pra Valer e mande pra gente!

      00:00 / 00:00
      outros vídeos desta música
      repetirqualidadeautomática
      Outro vídeos desta música
        00:00 / 00:00
        automática
        OK