Cifra Club

Só Pra Castigar

Wesley Safadão

Cifra: Principal (violão e guitarra)
Tom: C
[Intro] C  G  Dm7  F
        C  G  Dm7  F

E|------------------------------------------|
B|------------------------------------------|
G|-----4/5---5-7/9-7h9p7--7-7-7-7-5-4-5-5---|
D|-4/5-----5--------------------------------|
A|------------------------------------------|
E|------------------------------------------|

E|------------------------------------------|
B|----------5/6-5---------------------------|
G|------4/5-------7-5-7--5-4-2--------------|
D|-7-7--------------------------------------|
A|------------------------------------------|
E|------------------------------------------|

E|------------------------------------------|
B|------------------------------------------|
G|--4/5---5-7/9-7h9p7--7-7-7-7-5-4-5-5------|
D|------5-----------------------------------|
A|------------------------------------------|
E|------------------------------------------|

E|------------------------------------------|
B|----------5/6-5---------------------------|
G|------4/5-------7-5-4---------------------|
D|-7-7------------------7-5-----------------|
A|----------------------------8-7-----------|
E|------------------------------------------|

[Primeira Parte]

 C            G
Caça briga à toa
    Dm7         F
E adora passar raiva
Nunca vi

C            G              Dm7
Eu queria te entender, na boa
            F
Faz o que quer
E o que não quer de mim

[Pré-Refrão]

  Dm                   F
Até em assunto nada a ver
                   C
Você quer me provocar
                G
Quer me fazer ciúmes de graça

Dm                     F
É, eu não sou de retrucar
                  C
Mas eu vou descontar
          G               F  G
Naquilo que você mais gosta

[Refrão]

 C               G
Hoje, cê vai sentir na pele
                      Dm
O que é que é passar raiva
           F                         C
Vou dar o meu melhor na cama, de pirraça
           G                          Dm
Quando cê for virar o olho, eu vou parar
             F
Só pra castigar

 C               G                    Dm
Hoje, não sobra cabelo arrumado na cabeça
         F                           C
No rumo do seu quarto, hoje ranco a telha
           G                            Dm
Quando cê for virando o olho, eu vou parar
             F
Só pra castigar

[Solo] C  G  Dm  F 
       C  G  Dm  F

E|------------------------------------------|
B|------------------------------------------|
G|--4/5---5-7/9-7h9p7--7-7-7-7-5-4-5-5------|
D|------5-----------------------------------|
A|------------------------------------------|
E|------------------------------------------|

E|------------------------------------------|
B|----------5/6-5---------------------------|
G|------4/5-------7-5-7--5-4-2--------------|
D|-7-7--------------------------------------|
A|------------------------------------------|
E|------------------------------------------|

E|------------------------------------------|
B|------------------------------------------|
G|--4/5---5-7/9-7h9p7--7-7-7-7-5-4-5-5------|
D|------5-----------------------------------|
A|------------------------------------------|
E|------------------------------------------|

E|------------------------------------------|
B|----------5/6-5---------------------------|
G|------4/5-------7-5-4---------------------|
D|-7-7-------------------7-5----------------|
A|----------------------------8-7-----------|
E|------------------------------------------|

[Pré-Refrão]

  Dm                   F
Até em assunto nada a ver
                   C
Você quer me provocar
                G
Quer me fazer ciúmes de graça

Dm                     F
É, eu não sou de retrucar
                  C
Mas eu vou descontar
          G               F  G
Naquilo que você mais gosta

[Refrão]

 C               G
Hoje, cê vai sentir na pele
                      Dm
O que é que é passar raiva
           F                         C
Vou dar o meu melhor na cama, de pirraça
           G                          Dm
Quando cê for virar o olho, eu vou parar
             F
Só pra castigar

 C               G                    Dm
Hoje, não sobra cabelo arrumado na cabeça
         F                           C
No rumo do seu quarto, hoje ranco a telha
           G                            Dm
Quando cê for virando o olho, eu vou parar
             F
Só pra castigar

[Final] C  G  Dm  F  C

E|------------------------------------------|
B|------------------------------------------|
G|--4/5---5-7/9-7h9p7--7-7-7-7-5-4-5-5------|
D|------5-----------------------------------|
A|------------------------------------------|
E|------------------------------------------|

E|------------------------------------------|
B|----------5/6-5---------------------------|
G|------4/5-------7-5-7--5------------------|
D|-7-7--------------------------------------|
A|------------------------------------------|
E|------------------------------------------|
exibições 96.442
Acordes para:
    Composição: Diego Silveira / Henrique Casttro / LARI FERREIRA Colaboração e revisão:
    • Getúlio Vasconcelos
    • Thiago Almeida

    0 comentários

    mostrar mais comentários

    Conseguiu tocar?

    14 tocaram 9 ainda não

    Grave um vídeo tocando Só Pra Castigar e mande pra gente!

    00:00 / 00:00
    outros vídeos desta música
    repetir qualidade Automático
    Outros vídeos desta música
    00:00 / 00:00
    Automático
    OK