Enviar cifraEntrar

Meu Coração Deu Pt

Wesley Safadão

Cifra: Principal
exibições 374.482
Tom: B
Intro: G#m  E  F#  G#m  E  F#  G#m

Solo Intro:

Parte 1


E|----------------------------------------------------|
B|----------------------------------------------------|
G|-9-8\1-1-4/9--9-8\1-1-4/9--9-8\1-1-4--3-------------|
D|----------------------------------------6-4---------|
A|--------------------------------------------4-------|
E|----------------------------------------------------|


Parte 2


E|----------------------------------------------------|
B|----------------------------------------------------|
G|-9-8\1-1-4/9--9-8\1-1-4/9--9-8\1-1-4--3h4p3---------|
D|--------------------------------------------4/6-----|
A|----------------------------------------------------|
E|----------------------------------------------------|


Primeira Parte:

              E
Pegar meu violão
                 F#
Um copo, uma cerveja
                     G#m
Um whisky e um cigarro

                E
Eu não tô nada bem
                F#
Vi minha ex beijando
                    G#m
Outro dentro do carro

                      E
Não sei por que me ligou
                 F#
Com saudade, chorando
               G#m
Carente, implorando, querendo voltar

                      E
Eu não fiquei com ninguém
                  F#
Te esperando, confiei demais
        G#m
Me enganei de novo, quebrei a cara

Pré-refrão:

          E
Mais uma vez, eu tomei porre por você
          F#
Mais uma vez, o meu coração deu PT

Refrão:

           B9
A culpa é sua
                                 F#
Se eu tô aqui jogado no meio da rua

Me deixa aqui sofrendo
               C#m
Eu não quero ajuda
                               E
Eu fui tão inocente por acreditar
               F#
Que ainda me amava

         B9
E agora fala
                                 E
Que droga de amor é esse que sentia
                            C#m
Ontem eu era o amor da sua vida

E hoje eu sou o quê?
                 E
E hoje eu sou o quê?
                F#
Hoje eu sou passado pra você

Base Solo: G#m  E  F#  G#m  E  F#  G#m

Solo:

Parte 1


E|----------------------------------------------------|
B|----------------------------------------------------|
G|-9-8\1-1-4/9--9-8\1-1-4/9--9-8\1-1-4--3-------------|
D|----------------------------------------6-4---------|
A|--------------------------------------------4-------|
E|----------------------------------------------------|


Parte 2


E|----------------------------------------------------|
B|----------------------------------------------------|
G|-9-8\1-1-4/9--9-8\1-1-4/9--9-8\1-1-4--3h4p3---------|
D|--------------------------------------------4/6-----|
A|----------------------------------------------------|
E|----------------------------------------------------|


Primeira Parte:

              E
Pegar meu violão
                 F#
Um copo, uma cerveja
                     G#m
Um whisky e um cigarro

                E
Eu não tô nada bem
                F#
Vi minha ex beijando
                    G#m
Outro dentro do carro

                      E
Não sei por que me ligou
                 F#
Com saudade, chorando
               G#m
Carente, implorando, querendo voltar

                      E
Eu não fiquei com ninguém
                  F#
Te esperando, confiei demais
        G#m
Me enganei de novo, quebrei a cara

Pré-refrão:

          E
Mais uma vez, eu tomei porre por você
          F#
Mais uma vez, o meu coração deu PT

Refrão:

           B9
A culpa é sua
                                 F#
Se eu tô aqui jogado no meio da rua

Me deixa aqui sozinho
               C#m
Eu não quero ajuda
                               E
Eu fui tão inocente por acreditar
               F#
Que ainda me amava

         B9
E agora fala
                                 E
Que droga de amor é esse que sentia
                            C#m
Ontem eu era o amor da sua vida

E hoje eu sou o quê?
                 E
E hoje eu sou o quê?
                F#
Hoje eu sou passado pra você

Final:

G#m  E  F#  G#m  E  F#  G#m

Final:


              G#m
E|-------------4----------------------------|
B|-------------4----------------------------|
G|-------------4----------------------------|
D|-------------6----------------------------|
A|--7-6-4------6----------------------------|
E|--------6-7--4----------------------------|


Solo Final:

Parte 1


E|----------------------------------------------------|
B|----------------------------------------------------|
G|-9-8\1-1-4/9--9-8\1-1-4/9--9-8\1-1-4--3-------------|
D|----------------------------------------6-4---------|
A|--------------------------------------------4-------|
E|----------------------------------------------------|


Parte 2


E|----------------------------------------------------|
B|----------------------------------------------------|
G|-9-8\1-1-4/9--9-8\1-1-4/9--9-8--6-------------------|
D|----------------------------------8-9-6-------------|
A|----------------------------------------------------|
E|----------------------------------------------------|
  • 1
  • 2
  • 3
  • 4
  • 5
  • 6
  • 7
  • 8
  • 9
  • 10
  • 11
  • 12

    0 comentários

      mostrar mais comentários

      Conseguiu tocar?

      19tocaram4ainda não

      Grave um vídeo tocando Meu Coração Deu Pt e mande pra gente!

      00:00 / 00:00
      outros vídeos desta música
      repetirqualidadeautomática
      • automática
      Outro vídeos desta música
        00:00 / 00:00
        automática
        • automática
        Acordes para:violão e guitarra
        dificuldadeexibiçõescontribuições
        fecharplay/pause subir/descer velocidade
          acordes
          fechar
          OK
          Feedback