Cifra Club

Ar Condicionado No 15

Wesley Safadão

Cifra: Principal
exibições 257.626
Tom: G
[Intro] G  D  Em  C  D

E|------------------------------------------|
B|------------------------------------------|
G|------------------------------------------|
D|------------------------------------------|
A|------------------------------------------|
E|3-3-3-5-5-5-7-7-7-3-3-3-5-5-5-7-7-7-------|

E|------------------------------------------|
B|------------------------------------------|
G|------------------------------------------|
D|------------------------------------------|
A|------------------------------------------|
E|2-2-2-3-3-3-5-5-5-2-2-2-3-3-3-5-5-5-------|

E|------------------------------------------|
B|------------------------------------------|
G|------------------------------------------|
D|------------------------------------------|
A|3/5-3-2-0---0-----------------------------|
E|----------3---3/5~------------------------|

 G
Cinco dias, uma hora, dez minutos
               Bm
Que eu não te vejo
G
O relógio conta as horas
                       Bm
Enquanto eu conto nos dedos

          C                    D
Todos os beijos que eu não te dei
          Em
A saudade acumulando, acumulando

Já nem sei
         C                 D
Até que ponto eu vou aguentar
               C                D
Eu tô ficando louco só de imaginar

      G
E já pensou?

O ar condicionado no quinze
            D
E a gente suando

A TV no volume mais alto
           Em
E a gente se amando
                       C     D
O que é que cê tá esperando? 

      G
E já pensou?

O ar condicionado no quinze
            D
E a gente suando

A TV no volume mais alto
             Em
E a gente se amando
                       C
O que é que cê tá esperando?
              D
Um dia sem você parece um ano

( G  D  Em  C  D )

 G
Cinco dias, uma hora, dez minutos
               Bm
Que eu não te vejo
G
O relógio conta as horas
                       Bm
Enquanto eu conto nos dedos

          C                     D
Todos os beijos que eu não te dei
          Em
A saudade acumulando, acumulando

Já nem sei
         C                  D
Até que ponto eu vou aguentar
               C                D
Eu tô ficando louco só de imaginar

      G
E já pensou?

O ar condicionado no quinze
            D
E a gente suando

A TV no volume mais alto
           Em
E a gente se amando
                       C     D
O que é que cê tá esperando? 

      G
E já pensou?

O ar condicionado no quinze
            D
E a gente suando

A TV no volume mais alto
             Em
E a gente se amando
                       C
O que é que cê tá esperando?
              D
Um dia sem você parece um ano

[Final] G  D  Em  C  D
Acordes para:
    Colaboração e revisão:

    0 comentários

      mostrar mais comentários

      Conseguiu tocar?

      14tocaram0ainda não

      Grave um vídeo tocando Ar Condicionado No 15 e mande pra gente!

      00:00 / 00:00
      outros vídeos desta música
      repetirqualidadeautomática
      Outro vídeos desta música
        00:00 / 00:00
        automática
        OK