Cifra Club

Lipstick On The Glass

Wolf Alice

Cifra: Principal (violão e guitarra)
Selo Cifra Club: esta cifra foi revisada para atender aos critérios oficiais da nossa Equipe de Qualidade.
tom: Am
F = 333533
G = 555755
Am = x02210

Credit to the existing tab by erwinc0215 to which I have appended the opening riff.

The acoustic/lullaby version of this is same chord shapes but played fingerstyle.
I use two fingers (index and middle) to barre the chords for cleaner sound and less fatigue.

[Opening Riff]

E|-------------------------------------------------------------------|
B|-------------------------------------------------------------------|
G|-------------------------------------------------------------------|
D|-0-h1-h2-2-x-5-x-4~-4--(r| epeat 4 times)----------------------------|
A|-0-------0---0---0-------------------------------------------------|
E|-------------------------------------------------------------------|

E|-------------------------------------------------------------------|
B|-------------------------------------------------------------------|
G|-------------------------------------------------------------------|
D|-0-h1-h2-2-x-5-x-4~-4--------0-h1-h2-2-x-5-x-4~-4------------------|
A|-3-------3---3---3-----------3-------3---3---3---------------------|
E|-------------------------------------------------------------------|

E|-------------------------------------------------------------------|
B|-------------------------------------------------------------------|
G|-------------------------------------------------------------------|
D|-0-h1-h2-2-x-5-x-4~-4----(r| epeat 2 times)--------------------------|
A|-0-------0---0---0-------------------------------------------------|
E|-------------------------------------------------------------------|

(This riff is also played over the verses but on the D chord you play a D note (fret 5) on the A string, which
is tricky so I skip the 0h1h2 bit on the D chord.)


[Verse 1]
Am
Oh, it could be exciting
             C                            D
Excuse for a change if we don't work the way
        Am
We were

Oh, but nothing seems inviting
                         C                  D
Except the image of your open arms calling back
     Am
To me

[Chorus]
             F   G
I take you back
        Am                                    G                     F        G
Yeah, I know it seems surprising when there's lipstick still on the glass
         Am                        G                   F         G
And the full moon rising, but it's me who makes myself mad, mm
       Am
I take you

[Verse 2]
Am
Oh, my body does deceive me
             C
Just as did yours
                                D
Though we're fighting different wars
         Am
In our ways

Oh, but there's no pleasure in resisting
                C        D        Am
So go ahead and kiss me

[Chorus]
             F   G
I take you back
        Am                                    G                    F        G
Yeah, I know it seems surprising when there's lipstick still on the glass
         Am                        G                   F         G
And the full moon rising, but it's me who makes myself mad, mm
        Am
I take you

[Bridge]
F          G
Once more, once more
Am        C
Once more
F          G
Once more, once more
Am        C
Once more
F         Em
Once more
          Am
You know nothing would've needed deciding
     G                  F    Em
Had you just simply asked
         Am                   G
But the full moon rising, and it's me

[Chorus]
             F   G
I take you back
        Am                                    G                     F        G
Yeah, I know it seems surprising when there's lipstick still on the glass
         Am                        G                   F         G
And the full moon rising, but it's me who makes myself mad, mm
          Am
I take you
Outros vídeos desta música
    383 exibições
      • ½ Tom
      • Am
      • Bbm
      • Bm
      • Cm
      • C#m
      • Dm
      • Ebm
      • Em
      • Fm
      • F#m
      • Gm
      • G#m
    • Adicionar à lista

    Afinação da cifra

    Afinador online

      0 comentários

      Ver todos os comentários

      Conseguiu tocar?

      1Tocaram0Ainda não

      Grave um vídeo tocando Lipstick On The Glass e nos envie!

      Toque também

      1. Imagem do artista Lucy RoseShiver Lucy Rose
      2. Imagem do artista WallaAngels And Demons Walla
      3. Imagem do artista The Joy FormidableEndtapes The Joy Formidable
      4. Imagem do artista Swim Deepbeach justice Swim Deep

      Entre para o Cifra Club PRO

      Tenha acesso a benefícios exclusivos no App e no Site

      • Chega de anúncios

      • Badges exclusivas

      • Mais recursos no app do Afinador

      • Atendimento Prioritário

      • Aumente seu limite de lista

      • Ajude a produzir mais conteúdo

      Cifra Club Pro

      Aproveite o Cifra Club com benefícios exclusivos e sem anúncios
      Cifra Club Pro
      Aproveite o Cifra Club com benefícios exclusivos e sem anúncios
      Ops (: Contenido disponible sólo en portugués.
      OK