Cifra Club

Visions Of A Life

Wolf Alice

Cifra: Principal (violão e guitarra)
Selo Cifra Club: esta cifra foi revisada para atender aos critérios oficiais da nossa Equipe de Qualidade.
tom: E
Intro
E|-------------------------------------------------------------------------------|
B|-------------------------------------------------------------------------------|
G|-------------------------------------------------------------------------------|
D|--------------------------------------2--0-------------------------------------|
A|7--7/5--2--2/5--2--2/3/2--0-----0--2--------2-2--5/7-7--7/9/7------------------|
E|------------------------------3-------------------------------------------------| (x2)
The skin on my bones is leather cold
Poison my heart beat slow
fear crashing and not coming back…
E|-------------------------------------------------------------------------------|
B|-------------------------------------------------------------------------------|
G|-------------------------------------------------------------------------------|
D|-------------------------------------------------------------------------------|
A|7-5----------------------------------------------------------------------------|
E|-------7-5---------------------------------------------------------------------|
I’m cursed to my friends to be condemned
Mistakes that I made and wont mend
fear crashing and not coming back…
E|-------------------------------------------------------------------------------|
B|-------------------------------------------------------------------------------|
G|-------------------------------------------------------------------------------|
D|--------------------------------------2--0-------------------------------------|
A|7--7/5--2--2/5--2--2/3/2--0-----0--2--------2-2--5/7-7--7/9/7------------------|
E|------------------------------3------------------------------------------------|
I dream of death, its violent breath
I'm caught with my maker in step
fear crashing and not coming back…
E|-------------------------------------------------------------------------------|
B|-------------------------------------------------------------------------------|
G|-------------------------------------------------------------------------------|
D|-------------------------------------------------------------------------------|
A|7-5----------------------------------------------------------------------------|
E|-------7-5---------------------------------------------------------------------|
I could bleach clean my soul but he knows I know
I'm coming to dine in his hole
fear crashing and not coming back…
E|-------------------------------------------------------------------------------|
B|--------------5-5/7--5-5-------------------------------------------------------|
G|-------------------------------------------------------------------------------|
D|-------------------------------------------------------------------------------|
A|--7-7--7-7---------------------------------------------------------------------|
E|--0-0--0-0---------------------------------------------------------------------|

E|-------------------------------------------------------------------------------|
B|-------------------------------------------------------------------------------|
G|-------------------------------------------------------------------------------|
D|--------------9----------------------------------------------------------------|
A|--7-7--7-7----7----------------------------------------------------------------|
E|--0-0--0-0----0----------------------------------------------------------------|
Visions of a life
Where I was satisfied…
E|-------------------------------------------------------------------------------|
B|-------------------------------------------------------------------------------|
G|-------------------------------------------------------------------------------|
D|-------------------------------------------------------------------------------|
A|-------------------------------------------------------------------------------|
E|---7--3--0---------------------------------------------------------------------|
Feed my hungry mind… (Guitar 1) palm muted
E|-------------------------------------------------------------------------------|
B|-------------------------------------------------------------------------------|
G|-------------------------------------------------------------------------------|
D|--9-9-9--9-9-9--9-9------------------------------------------------------------|
A|--7-7-7--7-7-7--7-7------------------------------------------------------------|
E|--0-0-0--0-0-0--0-0------------------------------------------------------------| (x5)
Where are you when I close my eyes? (Guitar 2)
E|-------------------------------------------------------------------------------|
B|-------------------------------------------------------------------------------|
G|-------------------------------------------------------------------------------|
D|-------------------------------------------------------------------------------|
A|-------------------------------------------------------------------------------|
E|--7--3--0----------------------------------------------------------------------|
I left this world behind… (Guitar 1) palm muted
E|-------------------------------------------------------------------------------|
B|-------------------------------------------------------------------------------|
G|-------------------------------------------------------------------------------|
D|--9-9-9--9-9-9--9-9------------------------------------------------------------|
A|--7-7-7--7-7-7--7-7------------------------------------------------------------|
E|--0-0-0--0-0-0--0-0------------------------------------------------------------| (x5)
For the world, I'd built inside (Guitar 1)
E|-------------------------------------------------------------------------------|
B|-------------------------------------------------------------------------------|
G|-------------------------------------------------------------------------------|
D|--9-9-9--9-9-9--9-9------------------------------------------------------------|
A|--7-7-7--7-7-7--7-7------------------------------------------------------------|
E|--0-0-0--0-0-0--0-0------------------------------------------------------------| (x5)
Feed my hungry mind (Guitar 1)
E|-------------------------------------------------------------------------------|
B|-------------------------------------------------------------------------------|
G|-------------------------------------------------------------------------------|
D|--9-9-9--9-9-9--9-9------------------------------------------------------------|
A|--7-7-7--7-7-7--7-7------------------------------------------------------------|
E|--0-0-0--0-0-0--0-0------------------------------------------------------------| (x5)
Where are you when I close my eyes? (Guitar 2)
E|-------------------------------------------------------------------------------|
B|-------------------------------------------------------------------------------|
G|-------------------------------------------------------------------------------|
D|-------------------------------------------------------------------------------|
A|-------------------------------------------------------------------------------|
E|--7--3--0----------------------------------------------------------------------|
Where were you when I close my eyes… (Guitar 1 riff)
E|-12-12-12-12-0-0-0-0-------------0-0-0-0---------------------------------------|
B|---------------------12-12-12-12-----------------------------------------------|
G|-------------------------------------------------------------------------------|
D|-------------------------------------------------------------------------------|
A|-------------------------------------------------------------------------------|
E|-------------------------------------------------------------------------------| (x2)
(riff cont.)
E|-------------------------------------------------------------------------------|
B|-----10-12-----10-12-----10-12-----10-12---------------------------------------|
G|-7-9-------7-9-------7-9-------7-9-------9b------------------------------------|
D|-------------------------------------------------------------------------------|
A|-------------------------------------------------------------------------------|
E|-------------------------------------------------------------------------------|
Why do I feel so strange?
A nuclear family
And friends my own age
E|-------------------------------------------------------------------------------|
B|-------------------------------------------------------------------------------|
G|-------------------------------------------------------------------------------|
D|-------------------------------------------------------------------------------|
A|-------------------------------------------------------------------------------|
E|-0-0-0-0-0-0-0-0-0-0-0-0-0-0-0-0-0-0-0-0-0-0-0-0-0-0-0-0-0-0-0-0-0-0-0-0-0-0-0-|
I follow the rules
Do what it says on the tin
But I'm still on the outside still looking in
E|-------------------------------------------------------------------------------|
B|-------------------------------------------------------------------------------|
G|-------------------------------------------------------------------------------|
D|-------------------------------------------------------------------------------|
A|-------------------------------------------------------------------------------|
E|-7-7-7-7-7-7-7-7-3-3-3-3-3-3-3-3-0-0-0-0-0-0-0-0-0-0-0-0-0-0-0-0-0-0-0-0-0-0-0-|

E|-------------------------------------------------------------------------------|
B|-------------------------------------------------------------------------------|
G|-------------------------------------------------------------------------------|
D|-------------------------------------------------------------------------------|
A|7-5----------------------------------------------------------------------------|
E|-------7-5---------------------------------------------------------------------|
Why was I born with itchy feet?
Why do I hate all the people I meet?
E|-------------------------------------------------------------------------------|
B|-------------------------------------------------------------------------------|
G|-------------------------------------------------------------------------------|
D|-------------------------------------------------------------------------------|
A|-------------------------------------------------------------------------------|
E|-0-0-0-0-0-0-0-0-0-0-0-0-0-0-0-0-0-0-0-0-0-0-0-0-0-0-0-0-0-0-0-0-0-0-0-0-0-0-0-|
People's ideals give me the chills to the bone
I got one thousandmillion friends and I feel so alone
E|-------------------------------------------------------------------------------|
B|-------------------------------------------------------------------------------|
G|-------------------------------------------------------------------------------|
D|-------------------------------------------------------------------------------|
A|-------------------------------------------------------------------------------|
E|-7-7-7-7-7-7-7-7-3-3-3-3-3-3-3-3-0-0-0-0-0-0-0-0-0-0-0-0-0-0-0-0-0-0-0-0-0-0-0-|
Solo Guitar 1
E|-------------------------------------------------------------------------------|
B|-------------------------------------------------------------------------------|
G|-------------------------------------------------------------------------------|
D|-------------------------------------------------------------------------------|
A|---------12-14---------------12-14-14------------------------------------------|
E|12-14-15-------12----12-14-15--------------------------------------------------|
Solo cont. Guitar 1
E|----------------------------------------------------------------------------------|
B|----------------------------------------------------------------------------------|
G|----------------------------------------------------------------------------------|
D|----------------------------------------------------------------------------------|
A|---------12-14--------------------------------------------------------------------|
E|12-14-15-------12----12-14-12-11/12/11------------------------------------------| (x4)
Guitar 2
E|12-12-12-12-10----------10-10------------------------------------------------------|
B|---------------12-12-12-------12-12/13/12-10-8-10-12-------------------------------|
G|-----------------------------------------------------------------------------------|
D|-----------------------------------------------------------------------------------|
A|-----------------------------------------------------------------------------------|
E|-----------------------------------------------------------------------------------|
Solo cont.
E|7-7-7-7-7-7-7-7-3-3-3-3-3-3-3-3-0-0-0-0-0-0-0-0-0-0-0-0-0-0-0-0-0--------------|
B|-------------------------------------------------------------------------------|
G|-------------------------------------------------------------------------------|
D|-------------------------------------------------------------------------------|
A|-------------------------------------------------------------------------------|
E|-------------------------------------------------------------------------------|
Solo cont
E|-------------------------------------------------------------------------------|
B|-------------------------------------------------------------------------------|
G|-------------------------------------------------------------------------------|
D|--------------------------------------2--0-------------------------------------|
A|7--7/5--2--2/5--2--2/3/2--0-----0--2--------2-2--5/7-7--7/9/7------------------|
E|------------------------------3-------------------------------------------------|
solo cont.
E|-------------------------------------------------------------------------------|
B|--------------5-5/7--5-5-------------------------------------------------------|
G|-------------------------------------------------------------------------------|
D|----------------------------------9--------------------------------------------|
A|--7-7--7-7---------------7-7-7-7--7--------------------------------------------|
E|--0-0--0-0---------------0-0-0-0--0--------------------------------------------|
This repeats for the rest of the song
E|-------------------------------------------------------------------------------|
B|-------------------------------------------------------------------------------|
G|-7-7-7-9-9-9-9-----------------------------------------------------------------|
D|-7-7-7-9-9-9-9-----------------------------------------------------------------|
A|-5-5-5-7-7-7-7-----------------------------------------------------------------|
E|-0-0-0-0-----------------------------------------------------------------------|
I heard the journys ending lovers meeting…
E|-------------------------------------------------------------------------------|
B|-------------------------------------------------------------------------------|
G|-9-7-5-7--7-7-7-9--------------------------------------------------------------|
D|-9-7-5-7--7-7-7-9-9-9-9--------------------------------------------------------|
A|-7-5-3-5--5-5-5-7-7-7-7--------------------------------------------------------|
E|-0-0-0-0--0-0-0-0--------------------------------------------------------------|
Human heart in my hands...
E|-------------------------------------------------------------------------------|
B|-8------------------8----------------------------------------------------------|
G|---9-7-6-7-9--6-7-9---9-7-6-7-9--6-7-9-7-6-7-9-7-6-7---------------------------|
D|-----------------------------------------------------9-9-7/9-7/6---------------|
A|-------------------------------------------------------------------------------|
E|-------------------------------------------------------------------------------|
Outros vídeos desta música
    25 exibições
      • ½ Tom
      • A
      • Bb
      • B
      • C
      • Db
      • D
      • Eb
      • E
      • F
      • F#
      • G
      • Ab
    • Adicionar à lista

    Afinação da cifra

    Afinador online

      0 comentários

      Ver todos os comentários

      Conseguiu tocar?

      0Tocaram0Ainda não

      Grave um vídeo tocando Visions Of A Life e nos envie!

      Toque também

      1. Imagem do artista Lucy RoseShiver Lucy Rose
      2. Imagem do artista WallaJust Tired Walla
      3. Imagem do artista The Joy FormidableEndtapes The Joy Formidable
      4. Imagem do artista Swim Deepbeach justice Swim Deep

      Entre para o Cifra Club PRO

      Tenha acesso a benefícios exclusivos no App e no Site

      • Chega de anúncios

      • Badges exclusivas

      • Mais recursos no app do Afinador

      • Atendimento Prioritário

      • Aumente seu limite de lista

      • Ajude a produzir mais conteúdo

      Cifra Club Pro

      Aproveite o Cifra Club com benefícios exclusivos e sem anúncios
      Cifra Club Pro
      Aproveite o Cifra Club com benefícios exclusivos e sem anúncios
      Ops (: Contenido disponible sólo en portugués.
      OK