Cifra Club

Katie Don't Be Depressed

Yoñlu

Cifra: Principal (violão e guitarra)
Selo Cifra Club: esta cifra foi revisada para atender aos critérios oficiais da nossa Equipe de Qualidade.
tom: Am
[Intro] C   Em   Am   Am 
        C   Em   Am   Am
        C   Em   Am   Am
        C   Em   Am   Am
        C   Em   Am   Am
        C   Em   Am   Am
        F   Am   Dm   Dm
        F   Am   Dm   Dm

C    Em           Am
Katie, don't be depressed
C    Em           Am
Katie, don't be depressed
C            Em             Am
Seriously, I mean, what the fuck
C    Em          Am
Katie don't be depressed

F         Am            Dm
Some time may enter your world
F               Am         Dm
Before you can see the daylight
F               Am                Dm
Fruits of which will learn you to say
F               Am
Things will be alright

C    Em           Am
Katie, don't be depressed
C    Em           Am
Katie, don't be depressed
C            Em             Am
Seriously, I mean, what the fuck
C    Em          Am
Katie don't be depressed

F            Am                 Dm
A thought is tossed 'cross your head
F            Am        Dm
And sees you twist and shout
F             Am           Dm
Despite being held by the hand
F             Am
Despite being thrown to the ground

C    Em           Am
Katie, don't be depressed
C    Em           Am
Katie, don't be depressed
C            Em             Am
Seriously, I mean, what the fuck
C    Em          Am
Katie don't be depressed

         C          Em         Am         Am

E|----------3--------3--------3--------3---|
B|--------5---5---5---5----5----5----5-----|
G|-------5-------4-------2---------2-------|
D|-----------------------------------------|
A|-----------------------------------------|
E|-----------------------------------------|
      
          F                 Am              Dm              Dm

E|-------------8------------8----------8------------8-----|
B|---------10-----10----10---10----10-----10----10---10---|
G|-------10-----------9----------7-------------7----------|
D|--------------------------------------------------------|
A|--------------------------------------------------------|
E|--------------------------------------------------------|
00:00 / 00:00
Outros vídeos desta música
Repetir
Outros vídeos desta música
5.313 exibições
    • ½ Tom
    • Am
    • Bbm
    • Bm
    • Cm
    • C#m
    • Dm
    • Ebm
    • Em
    • Fm
    • F#m
    • Gm
    • G#m
  • Adicionar à lista

Afinação da cifra

Afinador online

    0 comentários

    Ver todos os comentários

    Entre para o Cifra Club PRO

    Tenha acesso a benefícios exclusivos no App e no Site

    • Chega de anúncios

    • Mais recursos no app do Afinador

    • Atendimento Prioritário

    • Aumente seu limite de lista

    • Ajude a produzir mais conteúdo

    00:00 / 00:00

    Cifra Club Pro

    Aproveite o Cifra Club com benefícios exclusivos e sem anúncios
    Cifra Club Pro
    Aproveite o Cifra Club com benefícios exclusivos e sem anúncios
    OK