Cifra Club

Mecânica Celeste Aplicada (Luana)

Yoñlu

Cifra: Principal (violão e guitarra)
Selo Cifra Club: esta cifra foi revisada para atender aos critérios oficiais da nossa Equipe de Qualidade.
tom: A
[Intro] 

    Bb5-                          A
E|--------------------------------------|
B|------5-----5---------5-----5---2-----|
G|----7-----7-----7---7-----7-----2-----|
D|--8-----8-----8---8-----8-------2-----|
A|--------------------------------0-----|
E|------------------------------6-------|

  A     A7M   A
O sol vê tudo
         A7M        Bm
Mas não conhece o amor
        E/G#    Bm
De uma garota
           E/G#          A     D#°
Que tem o dom de deslocar assim
   Bm       E/G#      A
A lua de Netuno no ar

          A7M     A
E quando a noite vem
         A7M      Bm
E traz consigo a dor
          E/G#    Bm
O sol se apaga
          E/G#             A   D#°
E só um sonho a faz lembrar que
Bm            E/G#      A
A noite sempre vai ter fim
      A7/G      D        E/G#
E eu aposto que ele nem sabe
     C#m       F#m
Onde fica Erechim
       Bm        C#7
E não sabe o que é
          F#m   F#
Sofrer de amor
 Bm        E/G#
Mas se é assim
      A      F#m       Bm
Ele está condenado a vagar
      C#7        F#m    E/G#
Por lugares sem luar
     F#m    E/G#
Sem luar

            A
E|--0-----------------------------------|
B|----3-2-0-2---------------------------|
G|----------2---------------------------|
D|----------2---------------------------|
A|----------0---------------------------|
E|--------------------------------------|

( A  A7M  A  A7M  Bm )
( E/G#  Bm  E/G#  A )
( D#°  Bm  E/G#  A )

          A7M   A
Se essa cidade
         A7M      Bm
Te faz querer voltar
         E/G#     Bm
E se é saudade
           E/G#    A
O que te leva para lá
  D#°    Bm           E/G#   A   A7/G
É só sonhar que está em seu lugar

D       E/G#
A pior coisa
       C#m        F#m
Que Platão já inventou
       Bm
Foi o amor
        C#7    F#m  F#
Que só traz solidão

 Bm      E/G#       A
Mas ela vai reencontrar
       F#m          Bm
O chimarrão e a amizade
        C#7          F#m   E/G#
Num solstício de verão
    F#m   E/G#
De verão
    F#m   E/G#
De verão
    
( F#m  E/G#  F#m  E/G#  F#m  E/G# )

            A                     A
E|--0---------------0-2-0---------------|
B|----3-2-0-2-3-2-3-------3-2-0-2-3-2---|
G|----------2-----------------------2---|
D|----------2-----------------------2---|
A|----------0-----------------------0---|
E|--------------------------------------|
00:00 / 00:00
Outros vídeos desta música
Repetir
Outros vídeos desta música
58.346 exibições
    • ½ Tom
    • A
    • Bb
    • B
    • C
    • Db
    • D
    • Eb
    • E
    • F
    • F#
    • G
    • Ab
  • Adicionar à lista

Afinação da cifra

Afinador online

    0 comentários

    Ver todos os comentários

    Entre para o Cifra Club PRO

    Tenha acesso a benefícios exclusivos no App e no Site

    • Chega de anúncios

    • Mais recursos no app do Afinador

    • Atendimento Prioritário

    • Aumente seu limite de lista

    • Ajude a produzir mais conteúdo

    00:00 / 00:00

    Cifra Club Pro

    Aproveite o Cifra Club com benefícios exclusivos e sem anúncios
    Cifra Club Pro
    Aproveite o Cifra Club com benefícios exclusivos e sem anúncios
    OK