Cifra Club

Aprenda

Na Mesma Estrada

Zé Felipe

Cifra: Principal (violão e guitarra)
tom: Eb (forma dos acordes no tom de D) Capotraste na 1ª casa
[Intro] D  Em  D  G

[Primeira Parte]

D
Me conhece mais do que eu mesmo
Bm
Com um olhar decifra meus segredos

Com um abraço acaba com meus medos
                   G
Não tem mais medo pai
                       Gm                    D   A
Sei que já virou um clichê mas eu te amo demais

[Segunda Parte]

Em           G                          D  A
 Na mesma canção eu vou seguir seus passos
   Em                G                  A
E quando você está longe dentro do meu coração te acho

[Refrão]

D                           Bm
E toda vez que via um erro meu

É no seu colo que me consolava
                             Bm
A maior herança que você me deu
                                G
Não é diamante nem ouro e nem prata

                             
A sua história e tudo que escreveu
                      Em
É a verdade da sua risada
                                G              A
Mesmo afastados pelo o dom que Deus nos deu,o pai
                                       D
Vai na frente que eu vou na mesma estrada

[Solo]

E|----------------------------------------------------|
B|----------------------------------------------------|
G|----------------------------------------------------|
D|-6/8-8-8/6-----------6/8-8-8/6----------------------|
A|-----------6-6-6/8-8-----------6-6-6/8--------------|
E|--------------------------------------6/8-----------|

E|----------------------------------------------------|
B|--8/9-8-6-4-4-4/11-8h9-8----------------------------|
G|----------------------------------------------------|
D|----------------------------------------------------|
A|----------------------------------------------------|
E|----------------------------------------------------|

( Em  G )

[Primeira Parte]

D
Me conhece mais do que eu mesmo

Com um olhar decifra meus segredos
Bm
Com um abraço acaba com meus medos
                   G
Não tem mais medo pai
                       Gm                    D  A
Sei que já virou um clichê mas eu te amo demais

[Segunda Parte]

G           A                          Bm  D
 Na mesma canção eu vou seguir seus passos
   Em                G                      A
E quando você está longe dentro do meu coração te acho

[Refrão]

D                          
E toda vez que via um erro meu
                           Bm
É no seu colo que me consolava
                             
A maior herança que você me deu
                                G
Não é diamante nem ouro e nem prata

                             
A sua história e tudo que escreveu
                      Em 
É a verdade da sua risada
                                G              A
Mesmo afastados pelo o dom que Deus nos deu,o pai
                                       G
Vai na frente que eu vou na mesma estrada

[Solo]

E|-------11-------------------------------6h8-6-------------------------------------|
B|-9p8-9----9-9/8-8/6-6/4-4/6-6/8-4-------------6/8-6---10b12-8---------------------|
G|----------------------------------3-4/6-------------8---------10------------------|
D|-----------------------------------------------------------------8--------------|
A|-------------------------------------------------------------------6--------------|
E|----------------------------------------------------------------------------------|

( G  A  Bm  D )
( G  A  Bm  D )
( G  Em )

   G
O  Pai
               A                      D
Vai na frente que eu to na mesma estrada
Composição de Adair Cardoso / Zé Felipe
55.825 exibições
    • ½ Tom
    • A
    • Bb
    • B
    • C
    • Db
    • D
    • Eb
    • E
    • F
    • F#
    • G
    • Ab
  • Adicionar à lista

    0 comentários

    Ver todos os comentários

    Conseguiu tocar?

    4 Tocaram 2 Ainda não

    Grave um vídeo tocando Na Mesma Estrada e nos envie!

    00:00 / 00:00
    Outros vídeos desta música
    Repetir Qualidade Automático
    Outros vídeos desta música
    00:00 / 00:00
    Automático

    Cifra Club Pro

    Aproveite o Cifra Club com benefícios exclusivos e sem anúncios
    Cifra Club Pro
    Aproveite o Cifra Club com benefícios exclusivos e sem anúncios
    OK