Cifra Club

Aprenda

Saudade de Você

Zé Felipe

Cifra: Principal (violão e guitarra)
tom: E
Intro: E  B  A  B

E|---------4-2-----------2-0----------2-4-5-4-4-2-2-------------|
B|-0-0-0-5-------0-0-0-4-----4-4-2-2----------------------------|
G|--------------------------------------------------------------|
D|--------------------------------------------------------------|
A|--------------------------------------------------------------|
E|--------------------------------------------------------------|

        E9        B           A            B
Só um olhar profundo traz de volta a minha paz
           E9        B          A            B
O teu sorriso, meu mundo ficar sem não sou capaz
               C#m              B
Sou louco por você, tente entender
             A               B
Que se eu respiro é por te amar
                C#m
Você me faz tão bem
            B
Me faz ir além
               A               B
Você me faz crescer, me faz sonhar

Refrão:

E               B
Ai, saudade de você
              A
Vontade de te ver
                B
Eu necessito você aqui comigo
E                 B
Mas não queira duvidar
               A
O amor está no ar
                   B
Ah eu preciso, de novo teu sorriso 

E               B
Ai, saudade de você
              A
Vontade de te ver
                B
Eu necessito você aqui comigo

C#m                 B
Mas não queira duvidar
               A
O amor está no ar
                   B
Ah eu preciso, de novo teu sorriso 

( E  B  A  B  C#m  B  A  B )


Solo:


E|---------4-2-----------2-0------5-5-5-4-4-2-2-0-2-2/4---------|
B|-0-0-0-5-------0-0-0-4-----4-2--------------------------------|
G|--------------------------------------------------------------|
D|--------------------------------------------------------------|
A|--------------------------------------------------------------|
E|--------------------------------------------------------------|

E|-4/5-5-4--------2-4-2------2-4-5-4-2--------------------------|
B|---------5-5/7--------5-2-------------------------------------|
G|--------------------------------------------------------------|
D|--------------------------------------------------------------|
A|--------------------------------------------------------------|
E|--------------------------------------------------------------|

               C#m              B
Sou louco por você, tente entender
             A               B
Que se eu respiro é por te amar
                C#m
Você me faz tão bem
            B
Me faz ir além
               A               B
Você me faz crescer, me faz sonhar

Refrão:

E               B
Ai, saudade de você
              A
Vontade de te ver
                B
Eu necessito você aqui comigo
E                 B
Mas não queira duvidar
               A
O amor está no ar
                   B
Ah eu preciso, de novo teu sorriso 

E               B
Ai, saudade de você
              A
Vontade de te ver
                B
Eu necessito você aqui comigo

C#m                 B
Mas não queira duvidar
               A
O amor está no ar
                   B
Ah eu preciso, de novo teu sorriso 

( E  B  A  B  C#m  B  A  B )
Composição de Adair Cardoso
Colaboração e revisão:
216.133 exibições
    • ½ Tom
    • A
    • Bb
    • B
    • C
    • Db
    • D
    • Eb
    • E
    • F
    • F#
    • G
    • Ab
  • Adicionar à lista

    0 comentários

    Ver todos os comentários

    Conseguiu tocar?

    33 Tocaram 4 Ainda não

    Grave um vídeo tocando Saudade de Você e nos envie!

    00:00 / 00:00
    Outros vídeos desta música
    Repetir Qualidade Automático
    Outros vídeos desta música
    00:00 / 00:00
    Automático

    Cifra Club Pro

    Aproveite o Cifra Club com benefícios exclusivos e sem anúncios
    Cifra Club Pro
    Aproveite o Cifra Club com benefícios exclusivos e sem anúncios
    OK