Cifra Club

Toma Toma Vapo Vapo (part. Mc Danny)

Zé Felipe

Cifra: Principal (violão e guitarra)
Selo Cifra Club: esta cifra foi revisada para atender aos critérios oficiais da nossa Equipe de Qualidade.
tom: Em
[Intro] Em  C  Em  C  B7

[Tab - Solo Intro]

Parte 1 de 2  
E|--7---------7--------7--------7-----10----|
B|------8-10------8-10-----8-10-----8-------|
G|----9---------9--------9--------9---------|
D|------------------------------------------|
A|------------------------------------------|
E|------------------------------------------|

Parte 2 de 4
E|--8------7-8------7-8------7-8------7-----|
B|------10-------10-------10-------10-------|
G|----9--------9--------9--------9----------|
D|------------------------------------------|
A|------------------------------------------|
E|------------------------------------------|

Parte 3 de 4
E|--7---------7--------7--------7-----10----|
B|------8-10------8-10-----8-10-----8-------|
G|----9---------9--------9--------9---------|
D|------------------------------------------|
A|------------------------------------------|
E|------------------------------------------|

Parte 4 de 4
E|--8------7-8------8-7--------7------------|
B|------10-------10-------8-10---10-8-10----|
G|----9--------9--------9-------------------|
D|------------------------------------------|
A|------------------------------------------|
E|------------------------------------------|

[Primeira Parte]

Em                        C
Ah, meu coração se apaixonou
                       Em
Por alguém que só me usou
                        C
E eu pensando que era amor
               B7
Mas ela só queria curtição

 Em
Volta, mozão, que eu tô viciado
 C                  B7
Na tua quicada, no teu rebolado
Em
   Que amorzinho safado
 C                      B7
Deu um chá de cama bem dado

[Refrão]

Em
   Brota na minha casa
                          C
Eu vou te dar um chá bem dado

Brota na minha casa
                          Em
Eu vou te dar um chá bem dado

Toma-toma, vapo-vapo
                C
Dentro do seu quarto
                 Bm7
Toma-toma, vapo-vapo
                Em
Dentro do meu quarto

Toma-toma, vapo-vapo
          C
Toma rebolado

Toma-toma, vapo-vapo
                 Em
Se liga bebê, ah

Toma-toma, vapo-vapo
          C
Toma esculacho
                     Bm7
Ah, toma, toma, toma
                Em
Dentro do meu quarto

( C  Em  C  B7 )

[Primeira Parte]

Em                        C
Ah, meu coração se apaixonou
                       Em
Por alguém que só me usou
                        C
E eu pensando que era amor
               B7
Mas ela só queria curtição

 Em
Volta, mozão, que eu tô viciado
 C                  B7
Na tua quicada, no teu rebolado
Em
   Que amorzinho safado
 C                      B7
Deu um chá de cama bem dado

[Refrão]

Em
   Brota na minha casa
                          C
Eu vou te dar um chá bem dado

Brota na minha casa
                          Em
Eu vou te dar um chá bem dado

Toma-toma, vapo-vapo
                C
Dentro do seu quarto
                 Bm7
Toma-toma, vapo-vapo
                Em
Dentro do meu quarto

Toma-toma, vapo-vapo
          C
Toma rebolado

Toma-toma, vapo-vapo
                 Em
Se liga bebê, ah

Toma-toma, vapo-vapo
          C
Toma esculacho
                     Bm7
Ah, toma, toma, toma
                 Em
Toma, toma, toma

[Refrão Final]

Brota na minha casa
                          C
Eu vou te dar um chá bem dado

Brota na minha casa
                          Em
Eu vou te dar um chá bem dado

Toma-toma, vapo-vapo
                C
Dentro do seu quarto
                 Bm7
Toma-toma, vapo-vapo
                Em
Dentro do meu quarto

Toma-toma, vapo-vapo
          C
Toma rebolado

Toma-toma, vapo-vapo
                 Em
Se liga bebê, ah

Toma-toma, vapo-vapo
          C
Toma esculacho
                     Bm7
Ah, toma, toma, toma
                     Em
Toma dentro do seu quarto
                      
Ah, toma, toma, toma 

[Final] C  Em  C  B7  Em
00:00 / 00:00
Outros vídeos desta música
Repetir
Outros vídeos desta música
138.650 exibições
    • ½ Tom
    • Am
    • Bbm
    • Bm
    • Cm
    • C#m
    • Dm
    • Ebm
    • Em
    • Fm
    • F#m
    • Gm
    • G#m
  • Adicionar à lista

Afinação da cifra

Afinador online

    0 comentários

    Ver todos os comentários

    Entre para o Cifra Club PRO

    Tenha acesso a benefícios exclusivos no App e no Site

    • Chega de anúncios

    • Mais recursos no app do Afinador

    • Atendimento Prioritário

    • Aumente seu limite de lista

    • Ajude a produzir mais conteúdo

    00:00 / 00:00

    Cifra Club Pro

    Aproveite o Cifra Club com benefícios exclusivos e sem anúncios
    Cifra Club Pro
    Aproveite o Cifra Club com benefícios exclusivos e sem anúncios
    OK