Cifra Club

Oi Balde

Zé Neto e Cristiano

Cifra: Principal (violão e guitarra)
Selo Cifra Club: esta cifra foi revisada para atender aos critérios oficiais da nossa Equipe de Qualidade.
tom: Bm
[Intro] Bm7  D2  Em7  G2

[Tab - Intro]

Parte 1 de 2
   Bm7        D2
E|------------------------------------------|
B|-3--3----3--3---3--3--5--7/8--------------|
G|-2--2----2--2---2-------------------------|
D|-0--0----0--0-----------------------------|
A|-2-----2----------------------------------|
E|------------------------------------------|
   ↓
Parte 2 de 2
   Em7        G2
E|------------------------------------------|
B|----3----3--3------3----------------------|
G|----0----0--2----2---2--------------------|
D|----2----2--0--0--------------------------|
A|------------------------------------------|
E|-0-----0----3-----------------------------|

[Primeira Parte]

 Bm7                
Sabe quando a gente termina 
             D2
Um relacionamento 
             Em7
E sente um alívio
              G2
Já passei por isso
 Bm7                   
Sabe quando a gente mete o louco
                  D2
Na cidade e sai moendo
              Em7       
Também já fiz isso
              G2
E ainda tô fazendo

[Tab - Primeira Parte]

Parte 1 de 4
   Bm7        D2
E|------------------------------------------|
B|-3--3----3--3---3-------------------------|
G|-2--2----2--2---2-------------------------|
D|-0--0----0--0-----------------------------|
A|-2-----2----------------------------------|
E|------------------------------------------|
   ↓
Parte 2 de 4
   Em7        G2
E|------------------------------------------|
B|-3--3----3--3-3------3-3------------------|
G|-0--0----0--2-2--2h4------4p2---2---------|
D|-2--2----2--0-0---------------4---2h4-----|
A|-2----------------------------------------|
E|-0-----0----3-----------------------------|
   ↓
Parte 3 de 4
   Bm7        D2
E|------------------------------------------|
B|----3----3--3---3------3--5--7------------|
G|----2----2--2---2-------------------------|
D|----0----0--0------3/4----5--7------------|
A|-2-----2----------------------------------|
E|------------------------------------------|
Parte 4 de 4
   Em7        G2
E|---------------x--x--x--x-----------------|
B|-3--3----3--3--3--3--3--3-----------------|
G|-0--0----0--2--2--2--2--2-----------------|
D|-2--2----2--0--0--0--0--0-----------------|
A|---------------x--x--x--x-----------------|
E|-0-----0----3--3--3--3--3-----------------|
                 ↓  ↓  ↓  ↓

[Pré-Refrão]

    Bm7         D2          Em7
Eu já borrei batons pela cidade
                         G2
Mas nada apaga minha saudade
    Bm7          D2                Em7
Eu tento mas não acho alguém do nível
                     Gm6
Só acho amor incompatível

[Refrão]

    D2
Oi balde, desculpa a cara de pau
            A2
Mas deu saudade
                                   
Eu te chutei quando a raiva 

Tava no auge
Em7                             D/F#
    Eu fui um trouxa a gente sabe
     G2
Que nunca foi falta de amor
                 Gm6
Foi só falta de maturidade

    D2
Oi balde, desculpa a cara de pau
            A2
Mas deu saudade
                                    
Eu te chutei quando a raiva 

Tava no auge
Em7                             D/F#
    Eu fui um trouxa a gente sabe
     G2
Que nunca foi falta de amor
                 Gm6
Foi só falta de maturidade

 Bm2                A2   
Fala que pra te buscar 
          G2
Ainda não é tarde

[Solo] Em7  G2  Bm7  A2 

[Tab - Solo]

Parte 1 de 2
E|-----------------------------------------------------|
B|-3h5-3h5---3--3h5--3--3h5--3h5-5---3--3h5--3--3h5----|
G|---------------------------x-------------------------|
D|---------------------------x-------------------------|
A|---------------------------x-------------------------|
E|-----------------------------------------------------|
Parte 2 de 2
E|-----------------------------------------------------|
B|-5/7-7-------3-3/5~----------------------------------|
G|-----------------------------------------------------|
D|-----------------------------------------------------|
A|-----------------------------------------------------|
E|-----------------------------------------------------|

[Pré-Refrão]

    Bm7         D2          Em7
Eu já borrei batons pela cidade
                         G2
Mas nada apaga minha saudade
    Bm7          D2                Em7
Eu tento mas não acho alguém do nível
                     Gm6
Só acho amor incompatível

[Refrão]

    D2
Oi balde, desculpa a cara de pau
            A2
Mas deu saudade
                                   
Eu te chutei quando a raiva 

Tava no auge
Em7                             D/F#
    Eu fui um trouxa a gente sabe
     G2
Que nunca foi falta de amor
                 Gm6
Foi só falta de maturidade

    D2
Oi balde, desculpa a cara de pau
            A2
Mas deu saudade
                                    
Eu te chutei quando a raiva 

Tava no auge
Em7                             D/F#
    Eu fui um trouxa a gente sabe
     G2
Que nunca foi falta de amor
                 Gm6
Foi só falta de maturidade

 Bm7                A2   
Fala que pra te buscar 
             G2
Ainda não é tarde
00:00 / 00:00
Outros vídeos desta música
Repetir
Outros vídeos desta música
721.199 exibições
  • Simplificar cifra
    • ½ Tom
    • Am
    • Bbm
    • Bm
    • Cm
    • C#m
    • Dm
    • Ebm
    • Em
    • Fm
    • F#m
    • Gm
    • G#m
  • Adicionar à lista

Afinação da cifra

Afinador online

    0 comentários

    Ver todos os comentários

    Entre para oCifra Club PRO

    Tenha acesso a benefícios exclusivos no App e no Site

    • Chega de anúncios

    • Prioridade de compra em lançamentos

    • Mais recursos no app do Afinador

    • Atendimento Prioritário

    • Descontos nos produtos Cifra Club

    • Ajude a produzir mais conteúdo

    00:00 / 00:00
    Capítulos
    • Apresentação
    • Tocando a Música
    • Acordes da Intro
    • Ensinando a Intro
    • Ensinando a Primeira Parte
    • Acordes do Pré-Refrão
    • Ensinando o Pré-Refrão
    • Acordes do Refrão
    • Ensinando o Refrão
    • Ensinando o Solo
    • Encerramento

    Cifra Club Pro

    Aproveite o Cifra Club com benefícios exclusivos e sem anúncios
    Cifra Club Pro
    Aproveite o Cifra Club com benefícios exclusivos e sem anúncios
    OK