Cifra Club

Te Amo

Zé Neto e Cristiano

Cifra: Principal (violão e guitarra)
exibições 467.120
Tom: C (forma dos acordes no tom de G) Capotraste na 5ª casa
[Intro] G  D9/F#  Em7  C

   G                      D9/F#
E|------------------------------0-----------|
B|-3----3--------3p0--------------3-------3-|
G|-0------0----0-----0--------2-----2-------|
D|-0--0------0---------0----0-----------0---|
A|------------------------------------------|
E|-3-------3--------------2-----------2-----|

   Em7                     C
E|------------------------------------------|
B|-3----3---------3p0------------1----------|
G|-0------0-----0-----0--------0----0-------|
D|-2--2-------2---------2----2------0h2-----|
A|-------------------------3--------3-------|
E|-0--------0-------------------------------|

[Primeira Parte]

      G
Onde você pensa que vai
           Bm
Com essas malas jogadas no chão
          C
Com esse rosto coberto de pranto
        Cm
E essa sombra no seu coração

[Segunda Parte]

      G
Onde você pensa que vai
         Bm
Senta aqui ainda não acabou
         C
Sei que nunca fui o mais perfeito
       Cm
Nunca dei o que você sonhou

Mas agora eu posso ver

[Refrão]

                G
Que eu não saberia
          
Acordar todo dia
              D9/F#
Olhar do meu lado e não te sentir
              Em7
Não me aceitaria

Olhando no espelho
                C
Sabendo que um dia te deixei partir

           G
Eu não imagino como seja o mundo
              D9/F#
Sem você por perto eu não posso seguir
       Em7
Me desculpa por tudo que fiz
               C
Se te fiz infeliz e nunca admiti

   G   D9/F#
Te amo
   Em7  C
Te amo
   G   D9/F#
Te amo
   Em7  C
Te amo
 
[Solo] G  D9/F#  Em7  C 

E|------------------------------------------|
B|-------1/3--1p0---3/5-3-------------------|
G|-----0----------2-------------------------|
D|-0h2--------------------------------------|
A|------------------------------------------|
E|------------------------------------------|

E|------------------------------------------|
B|-------1/3-3--1p0-------------------------|
G|-----0------------------------------------|
D|-0h2--------------2--0-2/5----------------|
A|------------------------------------------|
E|------------------------------------------|

[Segunda Parte]

      G
Onde você pensa que vai
         Bm
Senta aqui ainda não acabou
         C
Sei que nunca fui o mais perfeito
       Cm
Nunca dei o que você sonhou

Mas agora eu posso ver

[Refrão]

                G
Que eu não saberia
          
Acordar todo dia
              D9/F#
Olhar do meu lado e não te sentir
              Em7
Não me aceitaria

Olhando no espelho
                C
Sabendo que um dia te deixei partir

           G
Eu não imagino como seja o mundo
              D9/F#
Sem você por perto eu não posso seguir
       Em7
Me desculpa por tudo que fiz
               C
Se te fiz infeliz e nunca admiti

                G
Que eu não saberia
          
Acordar todo dia
              D9/F#
Olhar do meu lado e não te sentir
              Em7
Não me aceitaria

Olhando no espelho
                C
Sabendo que um dia te deixei partir

           G
Eu não imagino como seja o mundo
              D9/F#
Sem você por perto eu não posso seguir
       Em7
Me desculpa por tudo que fiz
               C
Se te fiz infeliz e nunca admiti

   G   D9/F#
Te amo
   Em7  C
Te amo
   G   D9/F#
Te amo
   Em7  C
Te amo

[Final] G

E|------------------------------------------|
B|-------1/3--1p0---3/5-3-------------------|
G|-----0----------2-------------------------|
D|-0h2--------------------------------------|
A|------------------------------------------|
E|------------------------------------------|

E|------------------------------------------|
B|-------1/3-3--1p0-------------------------|
G|-----0------------------------------------|
D|-0h2--------------2-----------------------|
A|------------------------------------------|
E|------------------------------------------|

0 comentários

mostrar mais comentários

Conseguiu tocar?

41 tocaram 5 ainda não

Grave um vídeo tocando Te Amo e mande pra gente!

00:00 / 00:00
outros vídeos desta música
repetir qualidade Automático
Outros vídeos desta música
00:00 / 00:00
Automático
OK