Cifra Club

Quem É Seu Favorito (part. Zé Neto e Cristiano)

Zé Ricardo e Thiago

Cifra: Principal (violão e guitarra)
Selo Cifra Club: esta cifra foi revisada para atender aos critérios oficiais da nossa Equipe de Qualidade.
tom: F#m
[Intro] D  E  F#m

E|---------------------------------------------5--4-2-2-0-0-0h2-|
B|--5/7-7-7-7-7-7--5-3--7/9-9-9-9-9-9--7-5----------------------|
G|------------------------------------------4/6--4--2-2-1-1-1h2-|
D|--6/7-7-7-7-7-7--6-4--7/9-9-9-9-9-9--7-6----------------------|
A|--------------------------------------------------------------|
E|--------------------------------------------------------------|

                   Bm
Eu já entrei sabendo
               D                   E
Que você já tinha alguém na sua vida
                     Bm
E pra não dar conflito
                 D                     E
Fica com ele a noite e vem me ver de dia

Bm                           D
E toda vez que vem me procurar
A                                              E
Já vai contando quantos passos gasta pra voltar
Bm                              D
Porque você sabe quando chega lá
A                                   E
O beijo e abraço dele vai te repugnar

               D                             E
Eu nem vou perguntar com quem você quer ficar
                        F#m         A
Porque se fosse ele agora você tava lá
               D                        E
Eu nem vou perguntar quem é seu favorito
                        F#m               A
Porque se fosse ele você não tava aqui comigo

Solo:
E|----------------------------------------------------------------|
B|----------------------------------------------------------------|
G|----------------------------------------------------------------|
D|-------------2/4-4-4-2-2h4p2------------2-4---------------------|
A|---0-0-0-0-0------------------4-4-4-4-4-----4-4-4-4-2-2-2-2-2h4-|
E|----------------------------------------------------------------|

E|----------------------------------------------------------------|
B|----------------------------------------------------------------|
G|----------------------------------------------------------------|
D|---5/7-7-6-6-2-2/4-4-4-2-2h4p2------------2-4-------------------|
A|--------------------------------4-4-4-4-4-----4-4-4-4-2-2-2-2---|
E|----------------------------------------------------------------|

E|----------------------|
B|----------------------|
G|-----------7-6-2------|
D|----------------------|
A|-----------5-4-2------|
E|---5-4-2--------------|

Bm                            D
E toda vez que vem me procurar
A                                              E
Já vai contando quantos passos gasta pra voltar
Bm                              D
Porque você sabe quando chega lá
A                                    E
O beijo e abraço dele vai te repugnar

               D                             E
Eu nem vou perguntar com quem você quer ficar
                        F#m         A
Porque se fosse ele agora você tava lá
               D                        E
Eu nem vou perguntar quem é seu favorito
                        F#m              A
Porque se fosse ele você não tava aqui comigo
00:00 / 00:00
Outros vídeos desta música
Repetir
Outros vídeos desta música
29.857 exibições
    • ½ Tom
    • Am
    • Bbm
    • Bm
    • Cm
    • C#m
    • Dm
    • Ebm
    • Em
    • Fm
    • F#m
    • Gm
    • G#m
  • Adicionar à lista

Afinação da cifra

Afinador online

    0 comentários

    Ver todos os comentários

    Entre para o Cifra Club PRO

    Tenha acesso a benefícios exclusivos no App e no Site

    • Chega de anúncios

    • Mais recursos no app do Afinador

    • Atendimento Prioritário

    • Aumente seu limite de lista

    • Ajude a produzir mais conteúdo

    00:00 / 00:00

    Cifra Club Pro

    Aproveite o Cifra Club com benefícios exclusivos e sem anúncios
    Cifra Club Pro
    Aproveite o Cifra Club com benefícios exclusivos e sem anúncios
    OK