Cifra Club

Flores No Asfalto

Zeca Baleiro

Cifra: Principal (violão e guitarra)
Selo Cifra Club: esta cifra foi revisada para atender aos critérios oficiais da nossa Equipe de Qualidade.
tom: D
INTRO1
e|-----------------------------0-----------------------------------0-------------------
B|-3-------------------------3---3-----------3-----------------------3---3-------------
G|-0h2---2---0-------------2-------2---------0h2---2---0-----0h2---2-------2-----------
D|-0---0---0---4-0-------0-----------0-------0---0---0---4-0-0----0----------0---------
A|-----------------0---0---------------------------------------------------------------
E|-------------------------------------------------------------------------------------

e|-----------------------------------------------------------|
B|-3---------------3-----------------------------------------|
G|-2h4-----2-0-----0h2-0--------8-9----8-9----8-9----8-9-----|
D|-0---0-------4---0-----4-0----8-9----8-9----8-9----8-9-----|
A|------------------------------6-7----6-7----6-7----6-7-----|
E|-----------------------------------------------------------|

INTRO2
  
   D          G       Em              D         G       Em                                      
e|--------5---5-----------------------|-----5---5-------0-----------------------------------|
B|----5/7---7-----8-7-8-----7---------|-5/7---7-----8-7-5-------0------0-------0--------15--|
G|--------------7-----9-------9-7-9---|-----------7------------0------0-------0-------14----|
D|------------------------9--------9/-|-----------------------------------------------------|
A|------------------------------------|---------------------7/9---9/10---10/12---12/14------|
E|------------------------------------|-----------------------------------------------------|
  D           G       Em              D         G       Em                                    
e|--------5---5-----------------------|-----5---5-----------------------|
B|----5/7---7-----8-7-8-----7---------|-5/7---7-----8-7-8-----8--12*----|
G|--------------7-----9-------9-7-9---|-----------7-----9----7----------|
D|------------------------9--------9/-|---------------------------------|
A|------------------------------------|---------------------------------|
E|------------------------------------|---------------------------------|
 *HARMÔNICO

(Não está perfeito, mas é algo parecido com isso)

          D           G         Em          
Os sinos dobram, dobro a esquina adiante
            D        G        Em          
O céu me espia mais azul que antes
           D       G        Em         
Os mortos andam como eu nas avenidas
            D        G       Em        
O sangue escorre da mesma ferida

 G         D/F#          Em         C        D    G D/F# Em D Bm   
  Ergo as mãos pro alto, nos meus dedos os anéis
 G                                  A   
  Flores crescem no asfalto, debaixo dos meus pés
                                   
        D         G         Em         
Tudo silencia, ouço só meu coração
        D       G          Em          
A rua acaba e meus sonhos vão
         D     G          Em          
Piso na poça, uma moça estende a mão
             D        G            Em  
Meus olhos brilham, vejo o céu no chão
                                 
 G         D/F#          Em         C        D    G D/F# Em D Bm   
  Ergo as mãos pro alto, nos meus dedos os anéis
G                                    A   
   Flores crescem no asfalto, debaixo dos meus pés
G                  D                 
 Deixo o dia para trás
   G                   D              
 Sono e sonho a noite me traz
G                  D       
 Deixo o dia para trás
  D#5 E5  (D#5 E5)3x                                  
 E a dor
         
REPETE INTRO2

Tudo silencia... até o final.

REPETE INTRO2

TERMINA EM (D#5 E5)2x  D
00:00 / 00:00
Outros vídeos desta música
Repetir
Outros vídeos desta música
26.052 exibições
    • ½ Tom
    • A
    • Bb
    • B
    • C
    • Db
    • D
    • Eb
    • E
    • F
    • F#
    • G
    • Ab
  • Adicionar à lista

Afinação da cifra

Afinador online

    0 comentários

    Ver todos os comentários

    Entre para o Cifra Club PRO

    Tenha acesso a benefícios exclusivos no App e no Site

    • Chega de anúncios

    • Mais recursos no app do Afinador

    • Atendimento Prioritário

    • Aumente seu limite de lista

    • Ajude a produzir mais conteúdo

    00:00 / 00:00

    Cifra Club Pro

    Aproveite o Cifra Club com benefícios exclusivos e sem anúncios
    Cifra Club Pro
    Aproveite o Cifra Club com benefícios exclusivos e sem anúncios
    OK